Ill Nino - Fallen Chords & Tabs

 

Fallen Chords & Tabs

Ill Nino Chords & Tabs

Version: 2 Type: Tab 0 ratings
1 star 2 stars 3 stars 4 stars 5 stars
comments

Fallen Tab

   
Ill Nino - Fallen
Submitted By: Derek Donaldson
EMail: zero_hour_666@msn.com


This song is on their digipak and its one of their best songs so enjoy :D
This might not be the correct tabbing for it because i didnt listen to it
i just figured it out but when i tabbed it using the actual tabs, it didnt 
sound right so this is my(and better, sorry Ill Nino :D) version :d

Drop C Tuning
[ Tab from: http://www.guitartabs.cc/tabs/i/ill_nino/fallen_tab_ver_2.html ]
Intro & Verse (Clean, not sure. Play with some variations and improvisation)
D|-----------------------|
A|----3---3---3---1------|
F|-----2---2---2---2-----|
C|--0---0---0---0---0----|
G|-----------------------|
C|-0---------------------|

Chorus (Heavy)
D|-------------------------|
A|-------------------------|
F|-------------------------|
C|-3-2-0----023023-02------|
G|-3-2-0----023023-02------|
C|-3-2-0----023023-02------|

Bridge
   (Wah effect, many times)
D|----------------------------------------|
A|----------------------------------------|
F|----------------------------------------|
C|-2-2-2-2-2-2-------------22-22-22-------|
G|-2-2-2-2-2-2-------------22-22-22-------|
C|-2-2-2-2-2-2-------------22-22-22-------|

E-mail me questions :D
Comments