Ill Nino - Disposal Chords & Tabs

 

Disposal Chords & Tabs

Ill Nino Chords & Tabs

Version: 1 Type: Bass Tab 0 ratings
1 star 2 stars 3 stars 4 stars 5 stars
comments

Disposal Bass Tab

Ill Nino - Disposal
Submitted By: Derek Donaldson
EMail: zero_hour_666@msn.com


intro riff:
|----------------------
|----------------------         x 8
|---3h2------3h2-----
|--------3h0-----3h0

main riff:
|--------------------------------
|--------------------------------        x 4
|--------------------------------
|---4-4-4-4h5-4\\3-4-4-4-6-3

verse riff:
|-------------------------------------
|-------------------------------------      x4
|-------------------------------------
|---4-4-4-44444444444-4-4-3-2

chorus:
|-----------------------------------------------------------------------------------
|-----------------------------------------------------------------------------------         x 3
|---------------------------------8-8-8-8-----------------------------------------
|----8-8-8-8-8-8-8-8-8-8-8-8----------------------4-4-4-4-4-4-4-4-4-4-4-4-4-4-4-4-4
[ Tab from: http://www.guitartabs.cc/tabs/i/ill_nino/disposal_btab.html ]
chorus end:
|---------------------------------------
|---------------------------------------       x 1
|--------------------------------8-8---
|---8-8-8-8-8-8-8-8-8-8-8-8----------4~

                                                         main riff x 4
                                                         verse riff x 4
                                                         chorus x 3
                                                         chorus end x 1

bridge:
|-------------------
|-------------------        x 3
|-------------------
|---2~------2--0~

bridge end:
|-------------------------------------------------
|-------------------------------------------------
|-------------------------------------------------
|---2~----2-2-2-2-2-2-2-2-0-0-0-0-0-0-0-0

                                                           chorus x 7
                                                               chorus1
Comments