Ill Nino - Cleansing Chords & Tabs

 

Cleansing Chords & Tabs

Ill Nino Chords & Tabs

Version: 1 Type: Bass Tab 0 ratings
1 star 2 stars 3 stars 4 stars 5 stars
comments

Cleansing Bass Tab

   
Band- Ill Nino
Song- Cleansing

Main Riff (0:19)
F:-------------------------------------------------------|
C:-------------------------------------------------------|
G:-------------------------------------------------------|
C:-0--0-0----06-06-0-6----6-00-6-060----------------|

F:------------------------------------------------------------|
C:------------------------------------------------------------|
G:------------------------------------------------------------|
C:--60-06060-6----------060-6-06----------------------|

F:------------------------------------------------------------|
C:------------------------------------------------------------|
G:------------------------------------------------------------|
C:--6---006-0606----0---60606------------------------|

F:-------------------------------------------------------------|
C:-------------------------------------------------------------|
G:-------------------------------------------------------------|
C:-- 6---006-0606----0---6--------0---0-0-----------------|

1ST Verse (0:38)

F:-------------------------------------------------------  X 3-|
C:-------------------------------------------------------------|
G:-------------------------------------------------------------|
C:0---0-0----------------606-06----0----0-0-----------------|

(Play this after the third time)
F:-----------|
C:-----------|
G:-----------|
C:---0--0-0--|

Chorus (0:59)

F:--------------|
C:--------------|
G:--------------|
C:-6~-----------|

F:-------------------------------------| X 4 (EXCEPT THE 6~)
C:-------------------------------------|
G:---3--331(13X)---------------------|
C: 5(13X)----------------666---------|
[ Tab from: http://www.guitartabs.cc/tabs/i/ill_nino/cleansing_btab.html ]
Main Riff (1:28)
F:-------------------------------------------------------|
C:-------------------------------------------------------|
G:-------------------------------------------------------|
C:-0--0-0----06-06-0-6----6-00-6-060----------------|

F:------------------------------------------------------------|
C:------------------------------------------------------------|
G:------------------------------------------------------------|
C:--60-06060-6----------060-6-06----------------------|

F:------------------------------------------------------------|
C:------------------------------------------------------------|
G:------------------------------------------------------------|
C:--6---006-0606----0---60606------------------------|

F:-------------------------------------------------------------|
C:-------------------------------------------------------------|
G:-------------------------------------------------------------|
C:-- 6---006-0606----0---6--------0---0-0-----------------|

2ND Verse (1:40)

F:-------------------------------------------------------  X 3-|
C:-------------------------------------------------------------|
G:-------------------------------------------------------------|
C:0---0-0----------------606-06----0----0-0-----------------|

(Play this after the third time)
F:-----------|
C:-----------|
G:-----------|
C:---0--0-0--|

Chorus (2:05)

F:--------------|
C:--------------|
G:--------------|
C:-6~-----------|

F:-------------------------------------| X 4 (EXCEPT THE 6~)
C:-------------------------------------|
G:---3--331(13X)---------------------|
C: 5(13X)----------------666---------|

Interlude:

F:-------------| 8X
C:-------------|
G:---1---------|
C:-5----5---3--|
Chorus (3:05)

F:--------------|
C:--------------|
G:--------------|
C:-6~-----------|

F:-------------------------------------| X 4 (EXCEPT THE 6~)
C:-------------------------------------|
G:---3--331(13X)---------------------|
C: 5(13X)----------------666---------|

Outro:

F:----
C:----
G:----
C:-5~
Comments