Ignorance - Eidsness Chords & Tabs

 

Eidsness Chords & Tabs

Ignorance Chords & Tabs

Version: 1 Type: Bass Tab 0 ratings
1 star 2 stars 3 stars 4 stars 5 stars
comments

Eidsness Bass Tab

2 - = Sixteenth note

Verse 1 and 3
-------------------------------
1-1-1-1-1-1-1-1-1-1-1-1-1-1-1-1
-------------------------------
-------------------------------

-------------------------------
----------------1-1-1-1-1-1-1-1
1-1-1-1-1-1-1-1----------------
-------------------------------

1------------------------------
-------1-----------------------
--------------2----------------
-------------------------------

-------------------------------
0-0-0-0-0-0-0-0-0-0-0-0-0-0-0-0
-------------------------------
-------------------------------
[ Tab from: http://www.guitartabs.cc/tabs/i/ignorance/eidsness_btab.html ]
Chorus
0---0-0-0-0-0-0-0-0-0-0-0-0-0-0
-------------------------------
-------------------------------
-------------------------------

5---5-5-5---5------------------
----------------2---2----------
------------------------2---2--
-------------------------------

-------------------------------
----------------0-0-0-0-0-0-0-0
0-0-0-0-0-0-0-0----------------
-------------------------------

-------------------------------
4-4-4-4-4-4-4-4-4--------------
-------------------------------
-------------------------------

4--------3----2----------------
-------------------------------
-------------------------------
-------------------------------
Comments