Ignite - Run Chords & Tabs

 

Run Chords & Tabs

Ignite Chords & Tabs

Version: 1 Type: Bass Tab 0 ratings
1 star 2 stars 3 stars 4 stars 5 stars
comments

Run Bass Tab

Run
Ignite
Tabbed by: Danzig_Fiend@hotmail.com

Intro/verse: (8x)
G|-------------------------------------|
D|-------------------------------------|
A|----------------3-3------------------|
E|--5-5-5--1-1-1------5-5-5-5-5-5-5-5--|

Chorus: (4x)
G|------------------------------------|
D|------------------------------------|
A|---------------3-3------------------|
E|--5-5-5--3-3-3-----5-5-5-5-5-5-5-5--|

Bridge: (2x)
G|-----------------------------------|
D|-----------------------------------|
A|------------88888888---3-----3-----|
E|--55555555---------------3-----3---|

Intro/verse: (8x)
G|-------------------------------------|
D|-------------------------------------|
A|----------------3-3------------------|
E|--5-5-5--1-1-1------5-5-5-5-5-5-5-5--|
[ Tab from: http://www.guitartabs.cc/tabs/i/ignite/run_btab.html ]
Bridge: (4x)
G|-----------------------------------|
D|-----------------------------------|
A|------------88888888---3-----3-----|
E|--55555555---------------3-----3---|

Solo thing: (2x)
G|----------------------------------------------------------------------------|
D|----------------------------------------------------------------------------|
A|------------------------------------------------------88888888-10-8-10-10-8-|
E|-5555555555555555-11111111-33333333-5555555555555555------------------------|

Then: (4x)
G|-------------------------------------------------|
D|-------------------------------------------------|
A|--------------------------------------------3----|
E|--5-5-5--5----5-5-5--5----3-3-3--3----1-1-1---3--|

Intro/verse: (8x)
G|-------------------------------------|
D|-------------------------------------|
A|----------------3-3------------------|
E|--5-5-5--1-1-1------5-5-5-5-5-5-5-5--|
Comments