Ignite - Embrace Chords & Tabs

 

Embrace Chords & Tabs

Ignite Chords & Tabs

Version: 1 Type: Bass Tab 0 ratings
1 star 2 stars 3 stars 4 stars 5 stars
comments

Embrace Bass Tab

IGNITE- Embrace     Possibly the best HC song ever.
Tab by B. Bosch

Intro:

G-----------[-------------------------------------------------------------------
D-----------[-------------------------------------------------------------------
A-----------[------555-------2222-----------------------------------------------
E-2---------[-222------5555--------------2X's-----------------------------------

Verse:

G-------------------------------------------------------------------------------
D-------------------------------------------------------------------------------
A------555--------2222---------------------------------------------------------
E-222-------5555--------------4X's----------------------------------------------

Chorus:

G-------------------------------------------------------------------------------
D-------------------------------------------------------------------------------
A-55555555--22222222------------------------------------------------------------
E---------------------------2-2--2-2--2-2--2-2----------------------------------

G-------------------------------------------------------------------------------
D-------------------------------------------------------------------------------
A-5--5-2--2-7--7-7--7-7---5-5-2-2-99999999--------------------------------------
E-------------------------------------------------------------------------------

Verse 2:

G-------------------------------------------------------------------------------
D------------------------------------------------------------------------------
A------555-------2222-----------------------------------------------------------
E-222------5555----------------4X's---------------------------------------------

Chorus:

G-------------------------------------------------------------------------------
D-------------------------------------------------------------------------------
A-55555555--22222222------------------------------------------------------------
E------------------------2-2--2-2--2-2--2-2----------------------------------

G-------------------------------------------------------------------------------
D-------------------------------------------------------------------------------
A-5--5-2--2-7--7-7--7-7---5-5-2-2-99999999--------------------------------------
E-------------------------------------------------------------------------------
[ Tab from: http://www.guitartabs.cc/tabs/i/ignite/embrace_btab.html ]
Pre Bass Line:

G-------------------------------------------------------------------------------
D-------------------------------------------------------------------------------
A-222-555-777-9-7------4X's-----------------------------------------------------
E-------------------------------------------------------------------------------

Bass Line

G----------------1------------------------------------------1-------------------
D-22------------------------1-------1--------22---------------------------------
A-----2----2----------2-------2-------2---------2---2---------------------------
E--------------5----------5------5-------2---------------5----------------------

Pre Final Chorus                                 at the end of the 4th:

G-------------------------------------]-----------------------------------------
D-------------------------------------]-----------------------------------------
A------------------------------4x's---]--99999999------------------------------
E-2--5555--7777-55-7777-5-------------]----------------------------------------

Bass intro:

G-------------------------------------------------------------------------------
D-------------------------------------------------------------------------------
A------555-------2222-----------------------------------------------------------
E-222------5555------------2X's-------------------------------------------------

Verse:

G-------------------------------------------------------------------------------
D-------------------------------------------------------------------------------
A------555--------2222----------------------------------------------------------
E-222-------5555-----------4X's-------------------------------------------------

Chorus:

G-------------------------------------------------------------------------------
D-------------------------------------------------------------------------------
A-55555555--22222222------------------------------------------------------------
E---------------------------2-2--2-2--2-2--2-2---------------------------------

G-------------------------------------------------------------------------------
D-------------------------------------------------------------------------------
A-5--5-2--2-7--7-7--7-7---5-5-2-2-99999999--------------------------------------
E-------------------------------------------------------------------------------

Comments