Iglesias Enrique - Hero Chords & Tabs

 

Hero Chords & Tabs

Iglesias Enrique Chords & Tabs

Version: 4 Type: Tab 0 ratings
1 star 2 stars 3 stars 4 stars 5 stars
comments

Hero Tab

   
#----------------------------------PLEASE NOTE---------------------------------#
#This file is the author's own work and represents their interpretation of the #
#song. You may only use this file for private study, scholarship, or research. #
#------------------------------------------------------------------------------##
From: sstynes@uwo.ca

Hero - Enrique Iglesias
-----

The song is pretty much [G - D - C - G]
Chord formations:   G 320033     D XX0232     C X32033

Intro - Picking
[ Tab from: http://www.guitartabs.cc/tabs/i/iglesias_enrique/hero_tab_ver_4.html ]
 GG   C   C DD  G  G
----3-----    -----3-----    ----3-----    -----3-----
----3-3-3-    -----3-3-3-    ----3-3-3-    -----3-3-3-
-------0--    --------0--    -------0--    --------0--
---------- X3 ----------- X2 ---------- X2 -----------
----------    -3-3-------    -0-0------    -----------
-3-3------    -----------    ----------    --3-3------


Verse 1 - [Picking]


Chorus:

G  D C

Verse 2 - [Picking]

Chorus

Solo:  (something like this:) (Guitar 1 plays same chords as chorus)
----------------------------|----------------------
---------0--------7/8-------|--7/8-8-10-8----------
-----------5/7-7-7----7-7---|-7----------7-7-------
--/5-5-5--------------------|---------------7h-/-5-
----------------------------|----------------------
----------------------------|----------------------


Verse 3 - [Picking] 

Chorus


Repeat Chorus

End with "I can be you're hero"


Tabbed by Seán Stynes 
Comments