Iglesias Enrique - Hero Chords & Tabs

 

Hero Chords & Tabs

Iglesias Enrique Chords & Tabs

Version: 1 Type: Tab 0 ratings
1 star 2 stars 3 stars 4 stars 5 stars
comments

Hero Tab

   
Date: Fri, 25 Jan 2002 08:56:11 +1000
From: kirk
Subject: i/iglesias_enrique/hero.tab


Artist: Enrique
Song: Hero
Tabbed By T. Dacosta



INTRO
e|----3-------3-------3-----3-------3-----3--------3------
B|------3-------3-------3-----3-------3-----3--------3----
G|--------0-------0-------0-----0-------0-----0--------2--
D|-----------------------------------------------0--------
A|--------------------------------3-----------------------
E|--3-------3-------0-------------------------------------

VERSE
e|----3-------3-------3-------3-------3-----3--------3--------3------
B|------3-------3-------3-------3-------3-----3--------3--------3----
G|--------0-------0-------0-------0-------0-----0--------2--------2--
D|-------------------------------------------------0--------0--------
A|----------------------------------3--------------------------------
E|--3-------3-------0-------0----------------------------------------
[ Tab from: http://www.guitartabs.cc/tabs/i/iglesias_enrique/hero_tab.html ]
PRE-CHORUS
e|----3-------3-------3-------3-------3-------3------
B|------3-------3-------3-------3-------3-------3----
G|--------0-------0-------0-------0-------0-------0--
D|------------------------------------------0--------
A|----------------------------------3----------------
E|--3-------3-------0-------0------------------------

1st Ending               2nd Ending  3rd Ending
e|----3-------3------|----3------|----3-----3----
B|------3-------3----|------3----|------3-----3--
G|--------0-------0--|--------0--|--------0------
D|-------------------|-----------|---------------
A|-------------------|-----------|---------------
E|--3-------3--------|--3--------|--3------------

CHORUS
     G     D     Cadd9
e|--3-----2-----3----
B|--3-----3-----3----
G|--0-----2-----0----
D|--0-----0-----2----
A|--2-----------3----
E|--3----------------

SOLO
e|----------------------------------------------------------------
B|----------------------------------------------------------------
G|---------------------------11----------11-12-11----------------
D|--5-5-5-7/9-9----9/12-12-12----12----12----------12-9-7----9\5--
A|----------------------------------------------------------------
E|----------------------------------------------------------------


(ORDER)
INTRO
VERSE - PRE-CHORUS - 1st Ending
VERSE - PRE-CHORUS - 2ND Ending
CHORUS  (x4)
VERSE - PRE-CHORUS - 3RD Ending
CHORUS  (X4)
SOLO
INTRO
PRE-CHORUS
CHORUS  (8x)
STRUM CHORUS CHORDS ONCE EACH



Comments