Iglesias Enrique - Escape Chords & Tabs

 

Escape Chords & Tabs

Iglesias Enrique Chords & Tabs

Version: 2 Type: Tab 1 rating
1 star 2 stars 3 stars 4 stars 5 stars
comments

Escape Tab

Artist       : Enrique Iglesias	
Song title : Escape
Album     : Escape

Intro:
[ Tab from: http://www.guitartabs.cc/tabs/i/iglesias_enrique/escape_tab_ver_2.html ]
e ---------------------------------------|-----------------------------------------|
B --------------0------0------0------- |-----------0--------0-------------------|
G ----------1---------------------------|------------------------------3---------|
D ------4----------4-------2-------2--|--1----4-------1-------4--------4-----|
A --------------------------------------|-----------------------------------------|
E --------------------------------------|-----------------------------------------|

and throughout the entire song.....(Sounds much better with Electric guitars)

Lead (End Of Chorus)

e --------------------------------------------------------|
B ------12----12h11--------12-12-11--12/14-----|
G -----------------------11-----------------------------|
D -------------------------------------------------------|
A -------------------------------------------------------|
E -------------------------------------------------------|

H.S.Lee
Comments