Iglesias Enrique - Bailamos Chords & Tabs

 

Bailamos Chords & Tabs

Iglesias Enrique Chords & Tabs

Version: 3 Type: Tab 0 ratings
1 star 2 stars 3 stars 4 stars 5 stars
comments

Bailamos Tab

   
##################################################################################
# This file is the author's own work and represents their interpretation of the  #
# song. You may only use this file for private study, scholarship, or research.  #
##################################################################################


Title : BAILAMOS
Artist: ENRIQUE IGLESIAS
Tab   : BJÖRN ELSNER - JANUARY 26/27th 2000 

INTRO:
VERSION 1
|---------------------------------------|
|--------0h1p0-----0--------------------|
|-1/2------------2-----------2h3p2-0-2--|
|---------------------0--2--------------|
|---------------------------------------|
|---------------------------------------|



VERSION 2
|---------------------------------------|
|-------0h1h0---------------------------|
|-0--2---------2--2-2-----2h3p2----0--2-|
|---------------------------------------|
|---------------------------------------|
|---------------------------------------|


[ Tab from: http://www.guitartabs.cc/tabs/i/iglesias_enrique/bailamos_tab_ver_3.html ]
Then some beats
Followed by
 
|-----------------------------3--1--0----------------|
|--------0h1p0-----0------------------ 3-------------|
|-1/2------------2-----------------------------------|
|---------------------0--2---------------------------|
|----------------------------------------------------|
|----------------------------------------------------|


VERSE 1:  Am   G   Am  F  E
===========================


CHORUS : Am G C F
==================

VERSE 2 (same as above)


CHORUS


BRIDGE:
Am Am Am            C
Oh Oh Oh - Tonight we dance
Am Am Am            C
Oh Oh Oh - There's no tommorrow
Am Am Am            C
Oh Oh Oh - If you'll stay (with me)

secriero mi amo**=whispered

SOLO:

|-----------------------------------2/5\4--1--3/5--7\5/12\10\9\7--| 
|------0h1--1p0---------------------------------------------------|
|-0h2------------2/4--5/7--5/7--2---------------------------------|
|-----------------------------------------------------------------|
|-----------------------------------------------------------------|
|-----------------------------------------------------------------|

|--------7/9\7/9~~~~~~~~~|
|--7/9-------------------|
|------------------------|
|------------------------|
|------------------------|
|------------------------|

2x REFRAIN  (Enrique shouts sometimes "c'mon secriero" but it's 
 not important)

...fade out

 
Comments