Iggy Pop - Passenger Chords & Tabs

 

Passenger Chords & Tabs

Iggy Pop Chords & Tabs

Version: 2 Type: Bass Tab 0 ratings
1 star 2 stars 3 stars 4 stars 5 stars
comments

Passenger Bass Tab

Iggy Pop
The Passenger
Tabbed by MxFx_Punk_Rawk

Main Riff (Intro, verse, Outro)
G---------------------------------
D---------------------------------
A------8-8--3-3-------------------
E-5-5------------3-3--------------
[ Tab from: http://www.guitartabs.cc/tabs/i/iggy_pop/passenger_btab_ver_2.html ]
Variation 1
G---------------------------------
D---------------------------------
A------8-8--3-3-535---------------
E-5-5----------------5-3----------

Variation 2
G---------------------------------
D-----------10-12-10-9------------
A------8-8------------------------
E-5-5-----------------------------

great song! I heard it on "Mat Hoffman's Pro BMX 2"
e-mail: Dave_Barrett_Neguac@hotmail.com
Comments