Idol Billy - White Wedding Chords & Tabs

 

White Wedding Chords & Tabs

Idol Billy Chords & Tabs

Version: 1 Type: Tab 1 rating
1 star 2 stars 3 stars 4 stars 5 stars
comments

White Wedding Tab

   





white_wedding5.tab




White Wedding
Billy Idol

Intro:
   E     B5     B5

Main Lick:
   Bm                   E                D                Bm     
e|-2-------|-----2----|-0~-------------|-2~-------------|-2-------|
B|---3-----|---3---3--|-0~-------------|-3~-------------|---3-----|
G|-----4---|-4--------|-1~-------------|-2~-------------|-----4---|
D|-------4-|----------|-2~-------------|-0~-------------|-------4-|
A|---------|----------|----------------|----------------|---------|
E|---------|----------|----------------|----------------|---------|

   Bm         D5               E                B
                                                P.M.----------|
e|-----2----|-5~-------------|-4~-------------|-----------------|
B|---3---3--|-3~-------------|-6~-------------|-----------------|
G|-4--------|-2~-------------|-4~-------------|-----------------|
D|----------|-0~-------------|----------------|-----------------|
A|----------|----------------|----------------|-2-2-2-2-2-2-2-2-|
E|----------|----------------|----------------|-----------------|

   B
   P.M.----------------------------------------------|
e|-----------------|-----------------|-----------------|
B|-----------------|-----------------|-----------------|
G|-----------------|-----------------|-----------------|
D|-----------------|-----------------|-----------------|
A|-2-2-2-2-2-2-2-2-|-2-2-2-2-2-2-2-2-|-2-2-2-2-2-2-2-2-|
E|-----------------|-----------------|-----------------|

Verse:
   B     A     E 
   
   B     A     E         
  
Pre-Chorus:
   B     A     B 
   
Chorus:
   A5     E5     B5

   E5     D5     B5

   E5     D5     B5     B                                                                                                                                                                                                                                                                                                                                                         
   Verse:
   B      A      E 
  
   B      A      E         
  
Pre-Chorus:
   B      A      B 
   


Chorus:
   A5     E5     B5

   E5     D5     B5

   E5     D5     B5      B
   
Main Lick:
   Bm                   E                D
e|-2-------|-----2----|-0~-------------|-2~-------------|
B|---3-----|---3---3--|-0~-------------|-3~-------------|
G|-----4---|-4--------|-1~-------------|-2~-------------|
D|-------4-|----------|-2~-------------|-0~-------------|
A|---------|----------|----------------|----------------|
E|---------|----------|----------------|----------------|

   Bm                   D5               E
e|-2-------|-----2----|-5~-------------|-4~-------------|
B|---3-----|---3---3--|-3~-------------|-6~-------------|
G|-----4---|-4--------|-2~-------------|-4~-------------|
D|-------4-|----------|-0~-------------|----------------|
A|---------|----------|----------------|----------------|
E|---------|----------|----------------|----------------|

   Bm                  
e|-2-------|-----2---|-2-------|-----2---|-2-------|-----2---|
B|---3-----|---3---3-|---3-----|---3---3-|---3-----|---3---3-|
G|-----4---|-4-------|-----4---|-4-------|-----4---|-4-------|
D|-------4-|---------|-------4-|---------|-------4-|---------|
A|---------|---------|---------|---------|---------|---------|
E|---------|---------|---------|---------|---------|---------|
[ Tab from: http://www.guitartabs.cc/tabs/i/idol_billy/white_wedding_tab.html ]
   Bm
e|-2-------|-----------|---------|
B|---3-----|---0-3/5-3-|-2-------|
G|-----4-2-|-1---------|---2---4-|
D|---------|-----------|-----4---|
A|---------|-----------|---------|
E|---------|-----------|---------|



Bridge:
   A5     E5     B5

Verse:
   B      A      E 
   
   B      A      E         
   
Pre-Chorus:
   B      A      B 
   
Chorus:
   A5     E5     B5

   E5     D5     B5

   E5     D5     B5     B
   
Bridge:
   B                                   Bm
   P.M.----------------------------|
e|-----------------|-----------------|-2~-------------|-(2)~-----------|
B|-----------------|-----------------|-3~-------------|-(3)~-----------|
G|-----------------|-----------------|-4~-------------|-(4)~-----------|
D|-----------------|-----------------|-4~-------------|-(4)~-----------|
A|-2-2-2-2-2-2-2-2-|-2-2-2-2-2-2-2-2-|-2~-------------|-(2)~-----------|
E|-----------------|-----------------|----------------|----------------|

   B                                   Bm
   P.M.----------------------------|
e|-----------------|-----------------|-2~-------------|-(2)~-----------|
B|-----------------|-----------------|-3~-------------|-(3)~-----------|
G|-----------------|-----------------|-4~-------------|-(4)~-----------|
D|-----------------|-----------------|-4~-------------|-(4)~-----------|
A|-2-2-2-2-2-2-2-2-|-2-2-2-2-2-2-2-2-|-2~-------------|-(2)~-----------|
E|-----------------|-----------------|----------------|----------------|

   B                                   Bm
   P.M.----------------------------|
e|-----------------|-----------------|-2~-------------|-(2)~-----------|
B|-----------------|-----------------|-3~-------------|-(3)~-----------|
G|-----------------|-----------------|-4~-------------|-(4)~-----------|
D|-----------------|-----------------|-4~-------------|-(4)~-----------|
A|-2-2-2-2-2-2-2-2-|-2-2-2-2-2-2-2-2-|-2~-------------|-(2)~-----------|
E|-----------------|-----------------|----------------|----------------|

   Bm                                E5               D5
e|-2~-------------|-(2)~-----------|----------------|----------------|
B|-3~-------------|-(3)~-----------|----------------|----------------|
G|-4~-------------|-(4)~-----------|----------------|-7~-------------|
D|-4~-------------|-(4)~-----------|-2~-------------|-7~-------------|
A|-2~-------------|-(2)~-----------|-2~-------------|-5~-------------|
E|----------------|----------------|-0~-------------|----------------|

   B5                                D5               E5
e|----------------|----------------|----------------|----------------|
B|----------------|----------------|----------------|----------------|
G|-4~-------------|-(4)~-----------|-7~-------------|----------------|
D|-4~-------------|-(4)~-----------|-7~-------------|-2~-------------|
A|-2~-------------|-(2)~-----------|-5~-------------|-2~-------------|
E|----------------|----------------|----------------|-0~-------------|

  B5
e|-----------------|----------------|
B|-----------------|----------------|
G|-4~--------------|-(4)~-----------|
D|-4~--------------|-(4)~-----------|
A|-2~--------------|-(2)~-----------|
E|-----------------|----------------|

Outro:
    E5              D5               B5            

 

 

 

Repete and Fade
Also heres a riff played throughout the entire song with a few pauses.

e|---------------------|----------------------|
B|---------------------|----------------------|
G|:------7-----7-----7-|-7--6--6--6--6--7----:|
D|:------7-----7-----7-|-7--7--7--7--7--7----:|
A|--x-x-----x-----x----|-------------------x--|
E|---------------------|----------------------|



Tab by J. Lusch: Billy Idol Want-A-Be


Comments