Idlewild - When I Argue I See Shapes Chords & Tabs

 

When I Argue I See Shapes Chords & Tabs

Idlewild Chords & Tabs

Version: 1 Type: Bass Tab 0 ratings
1 star 2 stars 3 stars 4 stars 5 stars
comments

When I Argue I See Shapes Bass Tab

band:idlewild
song:when i argue i see shapes
bassist:bob fairfoul
tabber:paul(idlewild@users.basstabarchive.com)sumbit

verse
g------------------------------------------------------------
d-*--------------------------------------------------------*-
a-*6-6-6--6-6-6--6-3-3--3-3-3--3---------------------------*-
e-------------------------------4-4--4-4-4--4-6-6--6-6-6--6--

chorus part one
"so don't fight it at all"
g---------------------
d-*-----------------*-
a-*3-3-3-3/6\--------*-
e------------4-4-4-4---
[ Tab from: http://www.guitartabs.cc/tabs/i/idlewild/when_i_argue_i_see_shapes_btab.html ]
chorus part 2
"you smoke too much"
g------------------------------------------------
d------------------------------------------------
a-6-6-6-6-6-6-6-6-6-6-6-3-3-3-3-3-3-3------------
e-------------------------------------4-4-4-4-6-6

"when i argue i see shapes,and when i argue.." (i play this but it's not 
right)
g---------------------------------------------------------------
d-*----------------------------------------------*--------------
a-*6-6-6-6-6-6-6-6-6-6-6-3-3-3-3-3-3-3-----------*-6-6-6--6-6-6-
e-------------------------------------4-4-4-4-6-6---------------

Comments