Idlewild - What I Am Not Chords & Tabs

 

What I Am Not Chords & Tabs

Idlewild Chords & Tabs

Version: 1 Type: Tab 0 ratings
1 star 2 stars 3 stars 4 stars 5 stars
comments

What I Am Not Tab

   
(I Am) What I Am Not - Idlewild
The Remote Part
Tabbed By Aj Vanbergen
Written By Idlewild

Intro:
E-|-2--------------2------------|
B-|---------2-0--0---------2-0--|
G-|---4-3-4----------4-3-4------|
D-|-----------------------------|
A-|-----------------------------|
E-|-----------------------------|

Verse: Guitar 1 - x2
E-|----2-------------------2---------------------|
B-|----------2-0------------------2-0------------|
G-|------3-4-----3-1--------4-3-4-----3-1--------|
D-|------------------4-4------------------4-4----|
A-|----------------------------------------------|
E-|----------------------------------------------|

E-|-2---------2-----------2---------------------|
B-|-------2-0---------2-0---------2-0-----------|
G-|---3-4-------4-3-4-------4-3-4-----3-1-------|
D-|---------------------------------------4-4---|
A-|---------------------------------------------|
E-|---------------------------------------------|

Verse: Guitar 2 - x2
E-|-------------------------------------------------------------|
B-|-------------------------------------------------------------|
G-|---------------------4-4-4-4-4-4-4-4-4-4---------------------|
D-|-6-6-6-6-6-6-6-6-6-6-4-4-4-4-4-4-4-4-4-4-2-2-2-2-2-2-2-2-2-2-|
A-|-6-6-6-6-6-6-6-6-6-6-2-2-2-2-2-2-2-2-2-2-2-2-2-2-2-2-2-2-2-2-|
E-|-4-4-4-4-4-4-4-4-4-4---------------------0-0-0-0-0-0-0-0-0-0-|

E-|---------------------|
B-|---------------------|
G-|-6-6-6-6-6-----------|
D-|-6-6-6-6-6-4-4-4-4-4-|
A-|-4-4-4-4-4-4-4-4-4-4-|
E-|-----------2-2-2-2-2-|

Bridge: Guitar 1 - x2
E-|----------------------------------------------------------|
B-|----------------------------------------------------------|
G-|---------------------4-------3---------3^r----------3^r---|
D-|-----2-----2---2-----4-------3-----6------------6---------|
A-|-----2-----2---2-2-2---2-1-1-------6------------6---------|
E-|-0-0---0-0---0-----------------4-4---4-----4--4--4--------|

Bridge: Guitar 2 - x2
E-|---------------------------------------------------------------|
B-|---------------------------------------------------------------|
G-|----(0)-(0)---(0)4-4-4-4-3-3-3-3--------(3)^r------------------|
D-|-2-2-2-2-2-2-2-2-4-4-4-4-3-3-3-3-6-6-6-6-6^---6--6-6/8-6-6/8^r-|
A-|-2-2-2-2-2-2-2-2-2-2-2-2-1-1-1-1-6-6-6-6-6----6--6-6---6-6-----|
E-|-0-0---0-0-0---0-----------------4-4---4------4--4-----4-------|

Chorus: Both Guitars
E-|--------------------------------------------------------------------------|
B-|--------------------------------------------------------------------------|
G-|-3-3-3-4-3---3-3-3-3-3-----------4--4-4-4-4-4-----3-3-3-4-3---3-3-3-4-3---|
D-|-3-3-3-4-3-6-3-3-3-3-3-6-6-6-6-6---4-4-4-4-4-4----3-3-3-4-3-6-3-3-3-4-3-6-|
A-|-1-1-1-2-1-6-1-1-1-1-1-6-6-6-6-6---2-2-2-2-2-2----1-1-1-2-1-6-1-1-1-2-1-6-|
E-|-----------4-----------4-4-4-4-4----------------------------4-----------4-|

E-|-------------------------------|
B-|-------------------------------|
G-|---------4---4-4-4-4-4-3-3-3-3-|
D-|-6-6-6-6---4-4-4-4-4-4-3-3-3-3-|
A-|-6-6-6-6---2-2-2-2-2-2-1-1-1-1-|
E-|-4-4-4-4-----------------------|

Interlude: Guitar 1
E-|---------------|
B-|---------------|
G-|---------------|
D-|---------------|
A-|---------------|
E-|-4-4-6-4-6-7-6-|

Interlude: Guitar 2
E-|------------|
B-|------------|
G-|------------|
D-|------------|
A-|------------|
E-|------------|

Verse: Guitar 1 - x2
E-|----2-------------------2---------------------|
B-|----------2-0------------------2-0------------|
G-|------3-4-----3-1--------4-3-4-----3-1--------|
D-|------------------4-4------------------4-4----|
A-|----------------------------------------------|
E-|----------------------------------------------|

E-|-2---------2-----------2---------------------|
B-|-------2-0---------2-0---------2-0-----------|
G-|---3-4-------4-3-4-------4-3-4-----3-1-------|
D-|---------------------------------------4-4---|
A-|---------------------------------------------|
E-|---------------------------------------------|

Verse: Guitar 2 - x2
E-|-------------------------------------------------------------|
B-|-------------------------------------------------------------|
G-|---------------------4-4-4-4-4-4-4-4-4-4---------------------|
D-|-6-6-6-6-6-6-6-6-6-6-4-4-4-4-4-4-4-4-4-4-2-2-2-2-2-2-2-2-2-2-|
A-|-6-6-6-6-6-6-6-6-6-6-2-2-2-2-2-2-2-2-2-2-2-2-2-2-2-2-2-2-2-2-|
E-|-4-4-4-4-4-4-4-4-4-4---------------------0-0-0-0-0-0-0-0-0-0-|
[ Tab from: http://www.guitartabs.cc/tabs/i/idlewild/what_i_am_not_tab.html ]
E-|---------------------|
B-|---------------------|
G-|-6-6-6-6-6-----------|
D-|-6-6-6-6-6-4-4-4-4-4-|
A-|-4-4-4-4-4-4-4-4-4-4-|
E-|-----------2-2-2-2-2-|

Bridge: Guitar 1 - x2
E-|----------------------------------------------------------|
B-|----------------------------------------------------------|
G-|---------------------4-------3---------3^r----------3^r---|
D-|-----2-----2---2-----4-------3-----6------------6---------|
A-|-----2-----2---2-2-2---2-1-1-------6------------6---------|
E-|-0-0---0-0---0-----------------4-4---4-----4--4--4--------|

Bridge: Guitar 2 - x2
E-|---------------------------------------------------------------|
B-|---------------------------------------------------------------|
G-|----(0)----------4-4-4-4-3-3-3-3---------3^(0)-----------------|
D-|-2-2-2-2-2-2-2-2-4-4-4-4-3-3-3-3-6-6-6-6-6^---6--6-6---6-6/8^r-|
A-|-2-2-2-2-2-2-2-2-2-2-2-2-1-1-1-1-6-6-6-6-6----6--6-6---6-6-----|
E-|-0-0---0-0-0---0-----------------4-4---4------4--4-----4-------|

Chorus: 2 Guitars
E-|--------------------------------------------------------------------------|
B-|--------------------------------------------------------------------------|
G-|-3-3-3-4-3---3-3-3-3-3-----------4--4-4-4-4-4-----3-3-3-4-3---3-3-3-4-3---|
D-|-3-3-3-4-3-6-3-3-3-3-3-6-6-6-6-6--4-4-4-4-4-4-----3-3-3-4-3-6-3-3-3-4-3-6-|
A-|-1-1-1-2-1-6-1-1-1-1-1-6-6-6-6-6---2-2-2-2-2-2----1-1-1-2-1-6-1-1-1-2-1-6-|
E-|-----------4-----------4-4-4-4-4----------------------------4-----------4-|

E-|-----------------------------------------------------------------------------------------|
B-|-----------------------------------------------------------------------------------------|
G-|---------4---4-4-4-4-4-3-3-3-3-3---3-3-3-4-3-----------4-4-4-4-4-4-4-4-4-4-4-4-3-3-3-3---|
D-|-6-6-6-6---4-4-4-4-4-4-3-3-3-3-3-6-3-3-3-4-3-6-6-6-6-6-4-4-4-4-4-4-4-4-4-4-4-4-3-3-3-3-6-|
A-|-6-6-6-6---2-2-2-2-2-2-1-1-1-1-1-6-1-1-1-2-1-6-6-6-6-6-2-2-2-2-2-2-2-2-2-2-2-2-1-1-1-1-6-|
E-|-4-4-4-4-------------------------4-----------4-4-4-4-4---------------------------------4-|

E-|--------------------------------------------|
B-|--------------------------------------------|
G-|-3-3-3-4-3---4-4-4---4---4---4---4---3-3-3--|
D-|-3-3-3-4-3-6-4-4---4---4---4---4---4-3-3-3--|
A-|-1-1-1-2-1-6-2-2---2---2-----2-2---2-1-1-1--|
E-|-----------4--------------------------------|

Solo: (if that's what you can call it) - Guitar 1
(Guitar 2 is silent)
E-|-----2---4-6-7-4----2---4-6-7-4-|
B-|-4-4---4--------------4---------|
G-|--------------------------------|
D-|--------------------------------|
A-|--------------------------------|
E-|--------------------------------|

Chorus: 2 Guitars
E-|--------------------------------------------------------------------------|
B-|--------------------------------------------------------------------------|
G-|-3-3-3-4-3---3-3-3-3-3-----------4--4-4-4-4-4-----3-3-3-4-3---3-3-3-4-3---|
D-|-3-3-3-4-3-6-3-3-3-3-3-6-6-6-6-6--4-4-4-4-4-4-----3-3-3-4-3-6-3-3-3-4-3-6-|
A-|-1-1-1-2-1-6-1-1-1-1-1-6-6-6-6-6---2-2-2-2-2-2----1-1-1-2-1-6-1-1-1-2-1-6-|
E-|-----------4-----------4-4-4-4-4----------------------------4-----------4-|

E-|-----------------------------------------------------------------------------------------|
B-|-----------------------------------------------------------------------------------------|
G-|---------4---4-4-4-4-4-3-3-3-3-3---3-3-3-4-3-------------4-4-4-4-4-4-4-4-4-4-4-3-3-3-3---|
D-|-6-6-6-6---4-4-4-4-4-4-3-3-3-3-3-6-3-3-3-4-3-6-6-6-6-6-4-4-4-4-4-4-4-4-4-4-4-4-3-3-3-3-6-|
A-|-6-6-6-6---2-2-2-2-2-2-1-1-1-1-1-6-1-1-1-2-1-6-6-6-6-6-2-2---2---2-----2---2-2-1-1-1-1-6-|
E-|-4-4-4-4-------------------------4-----------4-4-4-4-4---------------------------------4-|

E-|--------------------------------------------|
B-|--------------------------------------------|
G-|-3-3-3-4-3---4-4-4---4---4---4---4---3-3-3--|
D-|-3-3-3-4-3-6-4-4---4---4---4---4---4-3-3-3--|
A-|-1-1-1-2-1-6-2-2---2---2-----2-2---2-1-1-1--|
E-|-----------4--------------------------------|

Ending:
e-|--------------------------------|
B-|--------------------------------|
G-|-4--\---------------------------|
D-|-4--\---------------------------|
A-|-2--\---------------------------|
E-|--------------------------------|

There is one of the finest songs Idlewild have ever done.
Now, c'mon, u know the drill by now.
Any quierys, comments, blah blah blah blah (geez, this is so pointless)
Send them to forever_in_debt@hotmail.com blah blah blah blah
Thank u for your pity. 
Comments