Idlewild - Roseability Chords & Tabs

 

Roseability Chords & Tabs

Idlewild Chords & Tabs

Version: 3 Type: Tab 0 ratings
1 star 2 stars 3 stars 4 stars 5 stars
comments

Roseability Tab

   
Idlewild - Roseability
Tabbed By: Bluntmaster
EMail: cobainsbrains@hotmail.com


Two guitars-one lead, one rythmn chords
G#                            B                              G#                          B
     Rose------------------                   ability             there is no roseability
E---------------------------------------------------------------------------------
B-----14--12--11--7-------------------1112-14---------14-12-11-7----------11 12-14-
G---------------------------------------------------------------------------------
D---------------------------------------------------------------------------------
A-------------------------------------------------------------------------------
E--------------------------------------------------------------------------------
[ Tab from: http://www.guitartabs.cc/tabs/i/idlewild/roseability_tab_ver_3.html ]
Got off with 2 much now getting off with 2 much now, stop looking through scrapbooks 
and photograph albums, they cant seem to watch what you already know, youve always bedissatisfied
 F#               c#                               G#                                                                     F#
c#                 G#          F#                   c#                                                                         F#      c#    G#
E--------------------------------------------------------------------------------------------------------------------
B-------------------------------------------------------------------------------------------------------------------
G----------cant be arsed doing the lead------------------------------------------------------------------------
D-------------------------------------------------------------------------------------------------------------------
A-------------------------------------------------------------------------------------------------------------------
E-------------------------------------------------------------------------------------------------------------------

Gutrav stein said thatís enough         (I know thatís not enough now)
D#
E---------------------------------------------------------------------------------
B---------------------------------------------------------------------------------
G---------------------------------------------------------------------------------
D----8--9----------8----------------------4-------------------------------------------
A----6--6----------6----------------------4-----------------------------------------
E------------------------------------------2--------------------------------------

Verse, chorus, bridge bit, chorus
Comments