Idlewild - Live In A Hiding Place Chords & Tabs

 

Live In A Hiding Place Chords & Tabs

Idlewild Chords & Tabs

Version: 7 Type: Tab 0 ratings
1 star 2 stars 3 stars 4 stars 5 stars
comments

Live In A Hiding Place Tab

idlewild
Live In A Hiding Place
tabbed by ewan m

*Guitar tuned down half a step 

Verse Riff
There are times that i should try...
Eb-----------------------------------|
Bb-----------------------------------|
Gb------0-----0---------0-----0------|
Db----0-----0-----0---7-----7-----7--|
Ab--------3-----2---5-----5-----5----|
Eb--3--------------------------------| Play x 10

Chorus Riff
It's when I, I live in a hiding place...
Eb-----------------------------------|
Bb-----------------------------------|
Gb------0-----0---------0-----0------|
Db----0-----0-----0---0-----0-----0--|
Ab--3-----5-----5---7-----5-----5----|
Eb-----------------------------------| Play x 12

Break Riff
Eb-----------------------------------|
Bb-----------------------------------|
Gb------0-----0---------0-----0------|
Db----0-----0-----0---7-----7-----7--|
Ab--5-----3-----2---5-----5-----5----|
Eb-----------------------------------| Play x 2
[ Tab from: http://www.guitartabs.cc/tabs/i/idlewild/live_in_a_hiding_place_tab_ver_7.html ]
Verse Riff
Eb-----------------------------------|
Bb-----------------------------------|
Gb------0-----0---------0-----0------|
Db----0-----0-----0---7-----7-----7--|
Ab--------3-----2---5-----5-----5----|
Eb--3--------------------------------| Play x 8

Chorus Riff
It's when I, I live in a hiding place...
Eb-----------------------------------|
Bb-----------------------------------|
Gb------0-----0---------0-----0------|
Db----0-----0-----0---0-----0-----0--|
Ab--3-----5-----5---7-----5-----5----|
Eb-----------------------------------| Play x 8

Eb-------------7h8-7---------|
Bb-8---10--10--------8-------|
Gb----------------------7----| 
Db---------------------------|
Ab---------------------------|
Eb---------------------------|Play x 8

Verse Riff 2
Eb-----------------------------------|
Bb-----------------------------------|
Gb------0-----0---------0-----0------|
Db----0-----0-----0---0-----0-----0--|
Ab--------5-----5---7-----5-----5----|
Eb--3--------------------------------| Play x 10

Break Riff
Eb-----------------------------------|
Bb-----------------------------------|
Gb------0-----0---------0-----0------|
Db----0-----0-----0---7-----7-----7--|
Ab--5-----3-----2---5-----5-----5----|
Eb-----------------------------------| Play x 4
Comments