Idlewild - Little Discourage Chords & Tabs

 

Little Discourage Chords & Tabs

Idlewild Chords & Tabs

Version: 1 Type: Bass Tab 0 ratings
1 star 2 stars 3 stars 4 stars 5 stars
comments

Little Discourage Bass Tab

band:idlewild
song:little discourage
bassist:bob fairfoul
tabber:paul(idlewild@users.basstabarchive.com)
(a member of the bass tabbing army thingy www.basstabarchive.com)

verse:"i found a mountain.."
g------------------------
d------------------------
a------9-7-7-0-------9-7-
e-7--7----------7--7-----
[ Tab from: http://www.guitartabs.cc/tabs/i/idlewild/little_discourage_btab.html ]
bridge:"there's a 17 contest.."
g---------------------------------
d-4-4-4-4-2-2-2-2---------2-2-4-4-
a-----------------4-4-4-4---------
e---------------------------------

pre-chorus:"don't cross the road.."
g--------------------------
d--------------------------
a---------2-2-2-2-5-5-5-5--
e-2-2-2-2------------------

chorus:"but all i need i a little discourage.."
g-----------------------------------------------
d-----------------------------------------------
a-5-5-5-5-5-5-5-5-5-----------------------------
e-------------------0-2-2-0-2-2-2-0-2-4-4-4-5-5-
Comments