Idlewild - Itll Take A Long Time Chords & Tabs

 

Itll Take A Long Time Chords & Tabs

Idlewild Chords & Tabs

Version: 1 Type: Bass Tab 0 ratings
1 star 2 stars 3 stars 4 stars 5 stars
comments

Itll Take A Long Time Bass Tab

   
band:idlewild
song:it'll take a long time(originally by sandy denny)
bassist:bob fairfoul(on original:)
tabber:paul(idlewild@users.basstabarchive.com)
a member of the bass tab army @ www.basstabarchive.com

verse "it's like a storm at sea.."
a-5-5-5-4-4-4-2-2-2-2-0-2-2-0-4-5
[ Tab from: http://www.guitartabs.cc/tabs/i/idlewild/itll_take_a_long_time_btab.html ]
a-5-5-5-------2-2-2-2-0-2-2-0-4-5
e-------3-3-3--------------------

a-------5-5-5-2-2-2-------
e-3-3-3-------------2-2-2-

a-------2-2-2-------------------------
e-3-3-3-------2-2-2--0-0-2-0-0-2-0-0-2

chorus
a-----7-
e-0-0---

second chorus-this extra bit gradually comes in
a-----7-----2-4-2-
e-0-0---0-0------


Comments