Idlewild - In Remote Part Scottish Fiction Chords & Tabs

 

In Remote Part Scottish Fiction Chords & Tabs

Idlewild Chords & Tabs

Version: 3 Type: Tab 0 ratings
1 star 2 stars 3 stars 4 stars 5 stars
comments

In Remote Part Scottish Fiction Tab

   
Tabbed By Lee Mainwaring
Idlewild
In Remote Part/Scottish Fiction

Intro Riff
   F#5      C#     D#5
e -----------------------------------------------
B -----7-----6-7-6-----4-6-6h7-6-4-6-------------
G ---6---6-6---------3---------------------------
D -8---------------4---4-6-6h8-6-4---------------
A -----------------------------------------------
E -----------------------------------------------

 (Last time on 2nd Verse, theres this riff, it misses the hammer)
e -----------------------------------------------
B -----7-----6-7-6-----4-6-6-7-6-4---------------
G ---6---6-6---------3---------------------------
D -8---------------4---4-6-6-8-6-4---------------
A -----------------------------------------------
E -----------------------------------------------

Pre-Chorus Riff

e ---6--6-4---6--6-4--
B --------------------
G --------------------
D -4--4-----4--4------
A --------------------
E --------------------

Chorus Riff
e -----------------------------------------------
B -9s11-9-7-9s11-9-7-9s11-9-7-9s11-9-7-9-7-------
G -----------------------------------------------
D -----------------------------------------------
A -----------------------------------------------
E -----------------------------------------------

Acoustic riff behind electric riff
e -6-4-2-6---2---2---2------6-4-2-6---2---2---2------
B -------------4---4---4-2--------------4---4---4-2--
G ---------------------------------------------------
D ---------------------------------------------------
A ---------------------------------------------------
E ---------------------------------------------------

Verse 2 riff same as first one.
(Last time on 2nd Verse, theres this riff, it misses the hammer)
e -----------------------------------------------
B -----7-----6-7-6-----4-6-6-7-6-4---------------
G ---6---6-6---------3---------------------------
D -8---------------4---4-6-6-8-6-4---------------
A -----------------------------------------------
E -----------------------------------------------

[ Tab from: http://www.guitartabs.cc/tabs/i/idlewild/in_remote_part_scottish_fiction_tab_ver_3.html ]
Chorus riff same as well, just alot more times.

Lyrics
In the beginning there were answers,
Then they came along and changed,
All these questions and there answers seemed to change.

So i'll wait till i find the remote part of your heart,
Nowhere else will let us choose a comfortable start

We stop in every passing place,
To watch the world move faster than we do,
Watching passed with our eyes closed,
The way we usually choose to

So i will wait till i find the remote part of your heart
Nowhere else will let us choose a comfortable start,
And even if the breath between us smells of alcohol,
Calling confusion the best way possible 

Scottish fiction
----------------

All of it: D#5 C#5 B5

e -6-6s4--------6-6s4--------6-6s4-------6-6s4------
B -------6-7-4--------6-7-4--------6-7-4-------6-7-4
G --------------------------------------------------
D --------------------------------------------------

Do this above through the Vocals and 4 times after the vocals finish

e -6-6-6-6-7-7-9-9-9-9-9-9s6-6-6-6-7-7-9-9-9-9-9-9-x2
B -------------------------------------------------
G -------------------------------------------------
D -------------------------------------------------

e -6-6-6-6-7-7---------11-11-11-11--x5-then ---6-7- < piano finish
B -------------7-7-7-7-----------------------4-----
G -------------------------------------------------
D -------------------------------------------------

Lyrics - (It took me a while...I'm not Scottish!!!)

It isn't in the mirror,
It isn't on the beach,
There's a red hearted vibration,
Pushing through the walls of dark imagination,
Finding no equation,
Theres a red road rage,
But its not road rage.
Its asylum seekers engulfed by a grudge.
Scottish Fiction, Scottish Fiction.

It isn't in the castle,
It isn't in the mist,
Its a calling,
Of the waters as they break,
To show the new black death,
With reactors a glow,
You think your security,
Can keep impurity,
You will not shake it off,
Above or below.
Scottish Fiction, Scottish Fiction.


I think this tab is right, it is to my ear anyway. Enjoy!!!
Comments