Idlewild - I Want A Warning Chords & Tabs

 

I Want A Warning Chords & Tabs

Idlewild Chords & Tabs

Version: 1 Type: Tab 0 ratings
1 star 2 stars 3 stars 4 stars 5 stars
comments

I Want A Warning Tab

Band : Idlewild
Song : I Want A Warning
Album: Warnings Promises
Tabbed By: Calum (afirock74@hotmail.com)
Normal Tuning

x   - Palm Mute
b   - Bend
b~  - Bend Up Then Down
h   - Hammer-On Directly After Note Before

Intro Guitar 1:
e|---12----------------12---------------|--------------|
B|-----12-11-------------12-11-12-------|--------------|
G|-----------14-12-9--------------12-9--|-12-12--------|
D|--------------------------------------|-------12/14--|
A|--------------------------------------|--------------|
E|--------------------------------------|--------------|

Intro Guitar 2:
e|------------------|
B|-----8-----8---8--|
G|-----9-----9---9--|
D|-----9-----9---9--|
A|-----7-----7---7--|
E|-0-0---0-0---0----|
[ Tab from: http://www.guitartabs.cc/tabs/i/idlewild/i_want_a_warning_tab.html ]
Verse Guitar 1:
e|----------------------------------------------------|----------------------------------|--------------|
B|--11/12/11----11/12/11----11/12/11------------------|--12----12----12------------------|--12----------|
G|-----------12----------12----------12--9-12-9-12-9--|-----12----12----12--9-12-9-12-9--|-----14-12-9--|
D|----------------------------------------------------|----------------------------------|--------------|
A|----------------------------------------------------|----------------------------------|--------------|
E|----------------------------------------------------|----------------------------------|--------------|

Verse Guitar 2:
e|------------------------------------------|--------------|
B|------------------------------------------|--------------|
G|------------------------------------------|--------------|
D|-2-2-2-2--7-7-7-7-7-7-7--5-5-5-5-5-5-5-5--|-9-9-9-9-9-9--|
A|-2-2-2-2--7-7-7-7-7-7-7--5-5-5-5-5-5-5-5--|-9-9-9-9-9-9--|
E|-0-0-0-0--5-5-5-5-5-5-5--3-3-3-3-3-3-3-3--|-7-7-7-7-7-7--|

Chorus Guitar 1:
e|--------------------------------------------------------------|
B|--11-12-11-12--11-12-11-12--11-12-11-12-----------------------|
G|-----------------------------------------12-14-12-14/15/14-9--|
D|--------------------------------------------------------------|
A|--------------------------------------------------------------|
E|--------------------------------------------------------------|

Chorus Guitar 2:
e|-------------------------------------|
B|-------------------------------------|
G|-------------------7-7-7-7-----------|
D|-2-2-2-2--5-5-5-5--7-7-7-7--7-7-7-7--|
A|-2-2-2-2--5-5-5-5--5-5-5-5--7-7-7-7--|
E|-0-0-0-0--3-3-3-3-----------5-5-5-5--|

Bridge:
e|-0--|
B|-0--|
G|-1--|
D|-2--|
A|-2--|
E|-0--|
Comments