Idlewild - Flower Of Scotland Chords & Tabs

 

Flower Of Scotland Chords & Tabs

Idlewild Chords & Tabs

Version: 1 Type: Tab 0 ratings
1 star 2 stars 3 stars 4 stars 5 stars
comments

Flower Of Scotland Tab

#----------------------------------PLEASE NOTE---------------------------------#
#This file is the author's own work and represents their interpretation of the #
#song. You may only use this file for private study, scholarship, or research. #
#------------------------------------------------------------------------------#
Idlewild - Flower Of Scotland

This is a song originally written by Scottish band
The Corries, and has since been adopted as the
Scottish national anthem and national drinking song.
I heard Idlewild play it recently at the start of
their set at T in the Park here in Scotland, and the
crowd went mad, so i thought I'd tab it out as there
is no guitar tab for this song anywhere on the
internet, only a tab for the chords.

To play it like Idlewild did, just crank up the
distortion and have fun :-)
[ Tab from: http://www.guitartabs.cc/tabs/i/idlewild/flower_of_scotland_tab.html ]
   O Flower...      When will...          Your like...
E--15-15--13\11-11-----------11--15-13----13-11--13-15--
B-------------------11----11----------------------------
G-------------------------------------------------------
D-------------------------------------------------------
A-------------------------------------------------------
E-------------------------------------------------------

   That fought...        Your wee...
E--15-16-15-16-18-----------13--13-13----13-15--
B------------------16-----------------16--------
G------------------------15---------------------
D-----------------------------------------------
A-----------------------------------------------
E-----------------------------------------------

   And stood...        Proud Edwards.....
E--16-15--13-11--------15-16-15-16-18------
B----------------11--------------------16--
G------------------------------------------
D------------------------------------------
A------------------------------------------
E------------------------------------------

   And sent...              Tae think...
E--16-16-15-13-15--13-11----11-9--13-11--
B----------------------------------------
G----------------------------------------
D----------------------------------------
A----------------------------------------
E----------------------------------------

Repeat Verse 1
Comments