Idlewild - Everyone Says Your So Fragile Chords & Tabs

 

Everyone Says Your So Fragile Chords & Tabs

Idlewild Chords & Tabs

Version: 1 Type: Tab 0 ratings
1 star 2 stars 3 stars 4 stars 5 stars
comments

Everyone Says Your So Fragile Tab

Everyone says your so fragile
Idlewild

This is the best idlewild song my band are playing it right now,
the bass tab for this is kinda floting around everywhere but i 
could never find the guitar tab so i decided to tab it myself. 
I'm not sure about the verse cos the guitar is so quite but i just 
put the chords for it. ENJOY

[ Tab from: http://www.guitartabs.cc/tabs/i/idlewild/everyone_says_your_so_fragile_tab.html ]
Into/chorus
E---------------------------------------------
B--------6-4-2-----4-2-1-----6-4-2------------
G---------------------------------------------
D---------------------------------33333-66666-
A---66666-----66666-----66666-----11111-44444-
E---44444-----44444-----44444-----------------

verse
E-------
B-------
G-----6-
D--6--6-
A--6--4-
E--4----

chorus
E---------------------------------------------
B--------6-4-2-----4-2-1-----6-4-2------------
G---------------------------------------------
D---------------------------------33333-66666-
A---66666-----66666-----66666-----11111-44444-
E---44444-----44444-----44444-----------------

BIT AFTER THE CHORUS
E---------44-
B---11--44---
G-11---------

Any coments email eve at screaminglife87@hotmail.com
Comments