Idlewild - American English Chords & Tabs

 

American English Chords & Tabs

Idlewild Chords & Tabs

Version: 1 Type: Bass Tab 0 ratings
1 star 2 stars 3 stars 4 stars 5 stars
comments

American English Bass Tab

American English Bass Tabs
Pre-Chorus
-------------------------------------------------------------------------------------|
-------------------------------------------------------------------------------------|
-------------------------------------------------------------------------------------| x2
--2-2-2-2-2-2-2-2-0-0-0-0-0-0-0-0-4-4-4-4-4-4-4-4-2-2-2-2-2-2-2-2--------------------|

^ "Then you contracted American Dreams..." ^

Chorus
-------------------------------------------------------------------------------------|
-------------------------------------------------------------------------------------|
-------------------------------------------------------------------------------------| x2
--2-2-2-2-2-2-2-2-4-4-4-4-0-0-0-0-2-2-2-2-2-2-2-2-4-4-4-4-0-0-0-0--------------------|

^ "Sing a song about myself..." ^

Verse
-------------------------------------------------------------------------------------|
-------------------------------------------------------------------------------------|
-------------------------------------------------------------------------------------| x4
--2-2-2-2-2-2-2-2-4-4-4-4-4-4-4-4-0-0-0-0-0-0-0-0-2-2-2-2-2-2-2-2--------------------|

^ "Constantly searching to find something new..." ^

Pre-Chorus
-------------------------------------------------------------------------------------|
-------------------------------------------------------------------------------------|
-------------------------------------------------------------------------------------| x2
--2-2-2-2-2-2-2-2-0-0-0-0-0-0-0-0-4-4-4-4-4-4-4-4-2-2-2-2-2-2-2-2--------------------|

^ "Then you contracted American Dreams..." ^
[ Tab from: http://www.guitartabs.cc/tabs/i/idlewild/american_english_btab.html ]
Chorus
-------------------------------------------------------------------------------------|
-------------------------------------------------------------------------------------|
-------------------------------------------------------------------------------------| x4
--2-2-2-2-2-2-2-2-4-4-4-4-0-0-0-0-2-2-2-2-2-2-2-2-4-4-4-4-0-0-0-0--------------------|

^ "Sing a song about myself..." ^

Bridge
-------------------------------------------------------------------|
-------------------------------------------------------------------|
-------------------------------------------------------------------| x2 (First "0" is only
--0--------2-----------------4-------------------------2--------0--|       played first time)
   |            |                        |                                  |            |
^ "I won't tell you what this means, cause you already know" ^


Chorus
-------------------------------------------------------------------------------------|
-------------------------------------------------------------------------------------|
-------------------------------------------------------------------------------------| x8
--2-2-2-2-2-2-2-2-4-4-4-4-0-0-0-0-2-2-2-2-2-2-2-2-4-4-4-4-0-0-0-0--------------------|

^ "Sing a song about myself..." ^
Second Singer Sings After First Run Through Chorus...

"You came along with a weak spot, that you've always wanted
Let yourself be everything, that you've always wanted
It doesn't have to be so excited, that you've always wanted
No need for explanations, you've always wanted."

...Whilst still playing Chorus bass part. Then stop for chord guitarist and singer to finish song.


This is my first ever tab. Please tell me what you think dillipcrisby@hotmail.com
Comments