Idlewild - Actually Its Darkness Chords & Tabs

 

Actually Its Darkness Chords & Tabs

Idlewild Chords & Tabs

Version: 2 Type: Bass Tab 0 ratings
1 star 2 stars 3 stars 4 stars 5 stars
comments

Actually Its Darkness Bass Tab

band- idlewild
song- actually it's darkness
album- 100 broken windows(2000)
bassist- bob fairfoul
original tabber- sarah doherty (sarahdoherty25@hotmail.com)
correction by- paul wilson (wchocolat@aol.com)

Actually its darkness
Verse - You thought the fire would protect you from it....
g---------------------------------
d------------------1-1-1----4-4-4-
a-4-4-4-4-4-4-4-------------------
e---------------------------------
[ Tab from: http://www.guitartabs.cc/tabs/i/idlewild/actually_its_darkness_btab_ver_2.html ]
Pre chorus - but actually its darkness.....
g-------------------------------
d----------------4-4-4-4-1-1-1-1
a-------------------------------
e-4-4-4-4-4-4-4-----------------

chorus- you SHED a shade of shy-y-ness.....
g-----------------------------------
d-----------------------------------
a-4-4-4-4---------1-1-1-1-----------
e---------2-2-2-2---------4-4-4-4---



<<>>
Comments