Idlewild - A Little Discourage Chords & Tabs

 

A Little Discourage Chords & Tabs

Idlewild Chords & Tabs

Version: 1 Type: Tab 0 ratings
1 star 2 stars 3 stars 4 stars 5 stars
comments

A Little Discourage Tab

#----------------------------------PLEASE NOTE---------------------------------#
#This file is the author's own work and represents their interpretation of the #
#song. You may only use this file for private study, scholarship, or research. #
#------------------------------------------------------------------------------#

Song: A little discourage
Artist: Idlewild
Tabbed by: keith clark
mrnicesg@blueyonder.co.uk

Capo 2nd fret

Intro

e--------------------------------------------
B--------------------------------------------
G------2-s-9-7-7-0-------2-s-9-7----0--------
D----2-----------------2---------------------
A--0-----------------0-----------------------
E--------------------------------------------


e--------------------------------------------
B--------------------------------------------
G------2-s-9-7-7-0-------2-s-9-7----0--------
D----2-----------------2---------------------
A--0-----------------0-----------------------
E--------------------------------------------

Main riff

Verse 1:
e--------------------------------------------
B--------------------------------------------
G------2-s-9-7-7-0-------2-s-9-7-7-0---------
D----2-----------------2---------------------
A--0-----------------0-----------------------
E--------------------------------------------
[ Tab from: http://www.guitartabs.cc/tabs/i/idlewild/a_little_discourage_tab.html ]
I found a mountain on my own (I’m encouraged)
Trust history to say it’s unknown (it’s discouraging)

e--------------------------------------------
B----------3----------------------3-3-5------
G-----4-4----5-4-------------4-4-------------
D--------------------------------------------
A--------------------------------------------
E--------------------------------------------

There’s a seventeen contest in my own home (discourage)
Sick of seventeen contests in my own home (discourage)

Bridge:
e----------------------------------------------------------------
B-----------------------------------------------------------------
G----------------------------------------------------------------
D---2-2-2-2--7-7-7-7--10-10-10-10-10-10--5-5-----------------------
A---2-2-2-2--7-7-7-7--10-10-10-10-10-10--5-5------------------------
E---0-0-0-0--5-5-5-5--8--8--8--8--8--8---3-3------------------------

Chorus:
e------------------------------------------------
B------------------------------------------------
G------------------------------------------------
D--10-10-10-10-10-10--9-9-----------2------------
A--10-10-10-10-10-10--9-9-----------2------------
E--8--8--8--8--8--8---7-7-----------0------------

the chorus goes something like that was hard to work out
any comments to mrnicesg@blueyonder.co.uk
Comments