Idlewild - 1903- Chords & Tabs

 

1903- Chords & Tabs

Idlewild Chords & Tabs

Version: 1 Type: Bass Tab 0 ratings
1 star 2 stars 3 stars 4 stars 5 stars
comments

1903- Bass Tab

band:idlewild
song:(1903-70)
bassist:bob fairfoul
tabber:paul(idlewild@users.basstabarchive.com, for any requests)
          a member of the bass tab army @ www.basstabarchive.com

recorded bass version
verse
g----------------------------------------------
d-------------------------3-3---3-3------------
a-3-3---3-3---3-3---3-3---------------3-3---3-3
e----------------------------------------------
[ Tab from: http://www.guitartabs.cc/tabs/i/idlewild/1903_btab.html ]
chorus
g------------------------------------------
d-5-5-5-5-5-5-5-5-3-3-3-3-3-3-3-3----------
a---------------------------------3-3---3-3
e------------------------------------------

full melody (meant for guitar)
         x3
g--------------------------
d----2-0-0-------0-2-0-0---
a-*3-------3*--3---------3-
e--------------------------

g--------------------------------------------------------           
d-5---5---5---5---3---3---3---3------2-0-0------0-2-0-0--
a---3---3---3---3---0---0---0---0--3-------3--3---------3
e--------------------------------------------------------

Comments