Idina Menzel - Let It Go Chords & Tabs

 

Let It Go Chords & Tabs

Idina Menzel Chords & Tabs

Version: 2 Type: Tab 0 ratings
1 star 2 stars 3 stars 4 stars 5 stars
comments

Let It Go Tab

-------------------------------------------------------------------------------
                             LET IT GO - Idina Menzel
-------------------------------------------------------------------------------
Tabbed by: FreeT

Tuning: Normal; Capo on 1st fret



Just the intro. It should be pretty much there or thereabouts.

[ Tab from: http://www.guitartabs.cc/tabs/i/idina_menzel/let_it_go_tab_ver_2.html ]
e|-2-3---2---3------2-3---3---2--------0-2---0---2---------------------------|
B|-0---0------------1---0--------------3----------------3----1---------------|
G|------------------0----------------------2---------------------------------|
D|-2-----------------------------------0-------------------------------------|
A|------------------------------------------------------0--------------------|
E|-----------------------------------------------------------0---------------|

e|-2-3---2---3------3-2---3---2--------0-2---0---2---------------------------|
B|-0---0------------1---0--------------3----------------3--------------------|
G|------------------0----------------------2---------------------------------|
D|-2-----------------------------------0-------------------------------------|
A|------------------------------------------------------0--------------------|
E|---------------------------------------------------------------------------|



From: http://media-cache-ec0.pinimg.com/736x/a4/8b/24/a48b2465c4a3b9afec19001d45b2d21b.jpg
Comments