Identity - Just Another Love Song Chords & Tabs

 

Just Another Love Song Chords & Tabs

Identity Chords & Tabs

Version: 1 Type: Chords 0 ratings
1 star 2 stars 3 stars 4 stars 5 stars
comments

Just Another Love Song Chords

   
-------------------------------------------------------------------------------
			     JUST ANOTHER LOVE SONG - Identity
-------------------------------------------------------------------------------
Tabbed by: Alex Day, 'Nerimon'
Email: alexd@pro-net.co.uk
Tuning: Standard

This is my first guitar tab, I haven't been playing for very long but I was inspired
cos I love this song from the upcoming band Identity. If you haven't heard of them,
pleeease listen out for them or d/l stuff from a file-sharing program if you can find
it, it's really worth it if you like that American punk-rock sound.

All the chords are here but I included the intro and end riffs as well, they should be
right.

Intro riff:

e|-2-2-2-0-0-0-----3-3-3-5-5-2-0------2-2-2-0-0-0-----3-3-3-5-5-2-0----------|
B|-------------3-3------------------------------3-3--------------------------|
G|---------------------------------------------------------------------------|
D|---------------------------------------------------------------------------|
A|---------------------------------------------------------------------------|
E|---------------------------------------------------------------------------| x2


End riff:

e|-2-2-5-2-2-0-0----------2--------------------------------------------------|
B|---------------3-3------3--------------------------------------------------|
G|------------------------2--------------------------------------------------|
D|------------------------0--------------------------------------------------|
A|------------------------0--------------------------------------------------|
E|------------------------0--------------------------------------------------|


And the song itself:

[INTRO RIFF]

[Verse 1]
D
You looked at me when they called my name
G
Knew that I would never be the same
D
Hot blood starting to pump through my veins
A
Sending shockwaves up into my brain


[Bridge]
G                 A
I'll protect you, can't forget you
D                  Em
Now I've seen your bright brown eyes
G                A
I'll defend you, can't forget you
E
Underneath the shining skies

[ Tab from: http://www.guitartabs.cc/tabs/i/identity/just_another_love_song_crd.html ]
[Chorus]
D                            G
Baby, I don't know you but I want you
  Em
I need you here
D              G
I keep feeling lost without you
A
If you're not near
  D                 A                   Em                G
I hardly see you, I can't feel you, and I can't be more clear
    E
Cos I'm in love with you
         G
And it's killing me, my, dear


[Verse 2]
D
At the party, I saw you, again
G
So glad we're, becoming closer friends
D
We stayed dancing up until past ten
A
I just didn't, want the night to end


[Bridge]
G                 A
I'll protect you, can't forget you
D                  Em
Now I've seen your bright brown eyes
G                A
I'll defend you, can't forget you
E
Underneath the shining skies


[Chorus]
D                            G
Baby, I don't know you but I want you
  Em
I need you here
D              G
I keep feeling lost without you
A
If you're not near
  D                 A                   Em                G
I hardly see you, I can't feel you, and I can't be more clear
    E
Cos I'm in love with you
         G
And it's killing me, my, dear


[Middle 8]
Em             G    
I'm not going out, now
D             Am
I just wanna shout, that
Em             G
I can't do without, you
A
Come on girl, you know it's true


[Chorus]
D                            G
Baby, I don't know you but I want you
  Em
I need you here
D              G
I keep feeling lost without you
A
If you're not near
  D                 A                   Em                G
I hardly see you, I can't feel you, and I can't be more clear
    E
Cos I'm in love with you
         G               E
And it's killing me, my, dear 

	
[End]
D
I want you;
A
I need you;
Em
lost, with, out, you;
D
I don't see you,
	E
But I wanna feel you
         G          
And it's killing me my dear
n/c
I want you;
n/c
I need you;
         Em
And it's killing me ...

[ENDING RIFF]


Thank you for your time ^_^
Alex
Comments