Iced Earth - When The Eagle Cries Acoustic Chords & Tabs

 

When The Eagle Cries Acoustic Chords & Tabs

Iced Earth Chords & Tabs

Version: 1 Type: Tab 0 ratings
1 star 2 stars 3 stars 4 stars 5 stars
comments

When The Eagle Cries Acoustic Tab

   
Tabbed by:kyo1434@yahoo.com
Tunning: Half step down (Eb,Ab,Db,Gb,Bb,Eb,)
Band: Iced Earth
Tittle: When The Eagle Cries (Acoustic)

Verse 1:
----------
eb|--------------------------------|
Bb|-----------------------------0--|
Gb|-----------0---------------0----|
Db|-----4---4---4-------4---4------|
Ab|---2---2-------2---2---2--------|
Eb|-0---------------0--------------|

eb|--------------------------------|
Bb|-----------------------------0--|
Gb|-----------0---------------0----|
Db|-----4---4---4-------4---4------|
Ab|---2---2-------2---2---2--------|
Eb|-0---------------0--------------|

eb|-----------------------------|
Bb|-----------------------------|
Gb|------0------------2---------|
Db|---2-----2------4------4-----|
Ab|-3----------3-5-----------5--|
Eb|-----------------------------|


 Chorus:
---------
Guitar 1
   "...cries..."
   Em             C
eb|-0--0--0--0-0--0--0--0-0---|
Bb|-0--0--0--0-0--1--1--1-1---|
Gb|-0--0--0--0-0--0--0--0-0---|
Db|-2--2--2--2-2--2--2--2-2---|
Ab|-2--2--2--2-2--3--3--3-3---|
Eb|-0--0--0--0-0--------------|
   "Blood will flow..."
    D            G
eb|-2--2-2--2-2--3--3--3-3-|
Bb|-3--3-3--3-3--3--3--3-3-|
Gb|-2--2-2--2-2--0--0--0-0-|
Db|-0--0-0--0-0--0--0--0-0-|
Ab|------------------------|
Eb|------------------------|

Final chord:
   "...cries..."
     Em
eb|--0--|
Bb|--0--|
Gb|--0--|
Db|--2--|
Ab|--2--|
Eb|--0--|

Guitar 2
eb|--------------------------|
Bb|--------------------------|
Gb|--------------------------|
Db|--------9-7-----9-7-------|
Ab|-7----7-----10------10----|
Eb|--------------------------|

eb|--------------------------|
Bb|--------------------------|
Gb|--------------------------|
Db|-7-----------------9------|
Ab|---9-5----------10---10-9-|
Eb|--------------------------|

Final note:
eb|-----|
Bb|-----|
Gb|-----|
Db|-----|
Ab|--7--|
Eb|-----|


 Verse 2:
----------
 Same as verse 1


 Chorus
--------


 Solo:
-------
Guitar 1
eb|------------------------------|
Bb|------------------------------|
Gb|------------------------------|
Db|------------------------------|
Ab|-2----2-2----2---2---2--2-2---|
Eb|-0----0-0----0-3-3-3-3--3-3-0-|

eb|-----------------------------|
Bb|-----------------------------|
Gb|-----------------------------|
Db|-----------------------------|
Ab|-5----5-5----5---5--5--5-5---|
Eb|-2----2-2----2-2-3--2--3-3-0-|
[ Tab from: http://www.guitartabs.cc/tabs/i/iced_earth/when_the_eagle_cries_acoustic_tab.html ]
eb|------------------------------|
Bb|------------------------------|
Gb|------------------------------|
Db|------------------------------|
Ab|-2----2-2----2---2---2--2-2---|
Eb|-0----0-0----0-3-3-3-3--3-3-0-|

eb|-----------------------------|
Bb|-----------------------------|
Gb|-----------------------------|
Db|-----------------------------|
Ab|-5----5-5----5---5--5--5-5---|
Eb|-2----2-2----2-2-3--2--3-3-0-|

eb|-----------------------------|
Bb|-----------------------------|
Gb|-----------------------------|
Db|-2----2-2----2-2----2-2----2-|
Ab|-3----3-3----3-3----3-3----3-|
Eb|-----------------------------|

eb|-------------------------|
Bb|-------------------------|
Gb|-------------------------|
Db|-4----4-4----4---9----7--|
Ab|-5----5-5----5--10----9--|
Eb|-------------------------|

Guitar 2
eb|---------------------------------------------|
Bb|---------------------------------------------|
Gb|---------------------------------------------|
Db|---------------------------10h12-10--9-10-7--|
Ab|-7-9-10-7~----9-10-7--9-10-------------------|
Eb|---------------------------------------------|

eb|-------------------------------------------------|
Bb|-------------------------------------------------|
Gb|-----11-----12-----14-17-16-14-16b17----16p14-16-|
Db|-/12----/14----/16-------------------------------|
Ab|-------------------------------------------------|
Eb|-------------------------------------------------|

eb|--------------------------------------------------|
Bb|-------------------------------13h15-13--12-13----|
Gb|-14-16/17----16p14-16--14--12------------------14-|
Db|--------------------------------------------------|
Ab|--------------------------------------------------|
Eb|--------------------------------------------------|

eb|--------------------------------------|
Bb|-----13h15----13h15-13-12-13-12-------|
Gb|-----14h16----14h16-14----14----14-16-|<--harmony guitar
Db|-12--------------------17----17-16-17-|   plays bottom notes
Ab|--------------------------------------|
Eb|--------------------------------------|

eb|-------------------------------------|
Bb|-------------------------------------|
Gb|-14-16-16----14-16-16----14-16-/17~--|
Db|-16-17-17----16-17-17----16-17-/19~--|
Ab|-------------------------------------|
Eb|-------------------------------------|

eb|-------------------------|
Bb|--------------19h20-19~--|
Gb|-14-16--19----19h21-19~--|
Db|-16-17-------------------|
Ab|-------------------------|
Eb|-------------------------|

eb|-------------------------------------------------|
Bb|-15-15h17-15-------------------------------------|
Gb|-------------14-12-11----12h14-12-11-------------|
Db|----------------------12-------------12----------|
Ab|----------------------------------------14-12----|
Eb|----------------------------------------------12-|


 Chorus
--------
(until the end)

THE END!!
Comments