Iced Earth - Watching Over Me Chords & Tabs

 

Watching Over Me Chords & Tabs

Iced Earth Chords & Tabs

Version: 1 Type: Tab 0 ratings
1 star 2 stars 3 stars 4 stars 5 stars
comments

Watching Over Me Tab

this is a sweet song with a sweet solo


intro:
E:--------0---
B:-------3-3--
G:------0-----
D:-----4------
A:------------
E:------------
[ Tab from: http://www.guitartabs.cc/tabs/i/iced_earth/watching_over_me_tab.html ]
verse:
E:----2-2-2-------3-3-3-3--------3-3-3-3-----------
B:----2-2-2------3--3-3-3-------3--3-3-3-----------
G:--------------0--------------0-------------------play 10x
D:--2----------2--------------0--------------------
A:--2---------3--------------2---------------------
E:--------------------------3--------------2-3-2---

chorus:
E:--------------------------------------------------
B:--------------------------------------------------
G:--------------------------------------------------play 10x
D:--2-2--5-5----------------------------------------
A:--2-2--3-3--5-5--5-5-5----------------------------
E:--0-0-------3-3--2-3-2----------------------------
Comments