Iced Earth - Watching Over Me Chords & Tabs

 

Watching Over Me Chords & Tabs

Iced Earth Chords & Tabs

Version: 3 Type: Bass Tab 0 ratings
1 star 2 stars 3 stars 4 stars 5 stars
comments

Watching Over Me Bass Tab

   
Artist: Iced Earth
Title: Watching Over Me
Album: Something Wicked This Way Comes
Transcribed by: Costas TG
Email: costastg@hotmail.com

This is the studio version.At the live version (Alive In Athens) the bass
is tuned a fret down (D#,G#,C#,F#)

Intro - Verse (6x)
G------------------------|
D------------------------|
A-----3------------------|
E--0-----3--2--2-3-2-----|

Chorus (4x)
G-----------------------------------------|
D-----------------------------------------|
A-----------3-3-3-3-----------------------|
E--0-0-0-0-----------3-3-3-3--2-2--3-2----|

Repeat Verse (5x)

Repeat Chorus (4x)
[ Tab from: http://www.guitartabs.cc/tabs/i/iced_earth/watching_over_me_btab_ver_3.html ]
Guitar Solo
G-----------------------------------------|
D-----------------------------------------|
A-----------3-3-3-3-----------------------|
E--0-0-0-0-----------3-3-3-3--2-2--3-2----|

G-----------------------------------------|
D-----------------------------------------|
A-----------3-3-3-3-----------------------|
E--0-0-0-0-----------3-3-3-3--2-2--3-2----|

G--------------------------------------------------|
D--------------------------------------------------|
A--3-3~3~3-3---5-5~5~5-5---3-3~3~3-3---5-5~5~5-5---|
E--------------------------------------------------|

G--------------------------------------------------|
D--------------------------------------------------|
A--3-3~3~3-3---5-5~5~5-5---2-2~2~2-2---/X----------|
E--------------------------------------------------|

Repeat Chorus as many times as necessary (almost 12x)

At the live version repeats Chorus (12x) and then ends with four E


   ~ = TRILL
  /X = SLIDE TO NOWHERE

Any corrects, please, e-mail me.
Comments