Iced Earth - Watching Over Me Chords & Tabs

 

Watching Over Me Chords & Tabs

Iced Earth Chords & Tabs

Version: 1 Type: Bass Tab 0 ratings
1 star 2 stars 3 stars 4 stars 5 stars
comments

Watching Over Me Bass Tab

Tced Earth
"Watching Over Me"
author of tab:Kevin
email: FlCTlON107@aol.com

Im not sure on timings
it may be tuned down,maby c tunning:

intro/verse
a:------3
e:--0-------3---2-232--(x4)

a:----3
e:---------3---2-2-3-2-0-  (play till heavy part)

heavy part:  
a:------3-333-----------------
e:--0000--------3333--2222232- (x5) 	

verse:
____
a:--|----3----------------------------
e:0~|-----------3------2--2-3-2-----(repeats to heavy part)
[ Tab from: http://www.guitartabs.cc/tabs/i/iced_earth/watching_over_me_btab.html ]
heavy part2:
a:------3333-----------------
e:--0000------3--333--2222232 (repeats to solo,comes quick)

solo 1: ^ ^ 
a:------33333----------------
              ^ ^  ^ ^  ^ ^   
e:------------333332222200000(x5)

verse 2:
a:------3-333-----------------------
e:---------------3--333--2-222--0-000 (till solo 2)

Solo 2:
a:------3333---------------------
e:-------------3333-2222-0000 (x3)

Outro:
a:------3333-----------------------
e:---------------3--333--2222--0000~ (repeat 2 times on the 2nd time hold the last note)


~ = hold note
^_accsent
______
a:--|----\play this at the end of the first heavy part and 
e:0~|----/the verse stars on fret 3

Comments