Iced Earth - Vengeance Is Mine Chords & Tabs

 

Vengeance Is Mine Chords & Tabs

Iced Earth Chords & Tabs

Version: 1 Type: Tab 0 ratings
1 star 2 stars 3 stars 4 stars 5 stars
comments

Vengeance Is Mine Tab

Artist:          Iced Earth
Title:           Vengeance Is Mine Intro , Leads & Solos
Album:           The Dark Saga
Transcribed by:  Stefanos Danakos
Email:           slaytanic_gr@yahoo.com
Web site:        http://www.metalprovider.com/sdanakos

INTRO :

Tempo = 140 (Only for the Intro)
                                                              x4    Last Time
eb)|-------------------------------------------------------------|-----------|
Bb)|-------------------------------------------------------------|-----------|
Gb)|----------------------------4--------------------------------|-----------| Rhythm Gtr.
Db)|-2--------------------------4-------3------------------------|-2---------|
Ab)|-2--------------------------2-------3------------------------|-2---------|
Eb)|-0----------------------0-0-----0-0-1------------------------|-0---------|

eb)|-----------------------------------7~----8p0-7p0-5p0-7p0-8p0-|-----------|
Bb)|-0--8p0-7p0-5p0-4p0-5p0-7/8-4/5-0------0-------------------*-|-5~--------|
Gb)|-------------------------------------------------------------|-----------| Lead Gtr. (Clean w/delay)
Db)|-------------------------------------------------------------|-----------|
Ab)|-------------------------------------------------------------|-----------|
Eb)|-------------------------------------------------------------|-----------|
*4th time this note isn't played.


CHORUS LEAD :

eb)|Semi---------Semi AH-----------|
Bb)|-AH-AH--------____-------------|
Gb)|-5--4~~-------5--4--AH---------|
Db)|--------------------2~~--------|
Ab)|-------------------------------|
Eb)|-------------------------------|



SOLO :

eb)|-15p12-----15p12-----19h20p19-17h19p17-15h17p15-14h15p14~--15p12-----15p12-----19h20p19-17h19p17-14~~------|
Bb)|-------12--------12----------------------------------------------12--------12------------------------------|
Gb)|---------------------_________very fast picking_________-----------------------very fast picking-----------| Lead Gtr.
Db)|-----------------------------------------------------------------------------------------------------------|
Ab)|-----------------------------------------------------------------------------------------------------------|
Eb)|-----------------------------------------------------------------------------------------------------------|


eb)|-15p12-----15p12-----19h20p19-17h19p17-15h17p15-14h15p14~--------------------------------------------------|
Bb)|-------12--------12----------------------------------------12-/Full-----------14-/Fb15-/Full------r-\------|
Gb)|---------------------_________very fast picking_________---14(16)-------------16(18)17(19)---------(17)----| Lead Gtr.
Db)|-----------------------------------------------------------------------------------------------------------|
Ab)|-----------------------------------------------------------------------------------------------------------|
Eb)|-----------------------------------------------------------------------------------------------------------|

[ Tab from: http://www.guitartabs.cc/tabs/i/iced_earth/vengeance_is_mine_tab.html ]
eb)|-15p12-----15p12-----19h20p19-17h19p17-15h17p15-14h15p14~--15p12-----15p12-----19h20p19-17h19p17-14~~------|
Bb)|-------12--------12----------------------------------------------12--------12------------------------------|
Gb)|---------------------_________very fast picking_________-----------------------very fast picking-----------| Lead Gtr.
Db)|-----------------------------------------------------------------------------------------------------------|
Ab)|-----------------------------------------------------------------------------------------------------------|
Eb)|-----------------------------------------------------------------------------------------------------------|
                                                                                                               |
eb)|-19p15-----19p15-----22h24p22-20h22p20-19h20p19-17h19p17~--19p15-----19p15-----22h24p22-20h22p20-17~~------|
Bb)|-------17--------17----------------------------------------------17--------17------------------------------|
Gb)|---------------------_________very fast picking_________-----------------------very fast picking-----------| Harmony Gtr.
Db)|-----------------------------------------------------------------------------------------------------------|
Ab)|-----------------------------------------------------------------------------------------------------------|
Eb)|-----------------------------------------------------------------------------------------------------------|


eb)|-15p12-----15p12-----19h20p19-17h19p17-15h17p15-14h15p14~--------------------------------------------------|
Bb)|-------12--------12----------------------------------------12-/Full-----------14-/Fb15-/Full------r-\------|
Gb)|---------------------_________very fast picking_________---14(16)-------------16(18)17(19)---------(17)----| Lead Gtr.
Db)|-----------------------------------------------------------------------------------------------------------|
Ab)|-----------------------------------------------------------------------------------------------------------|
Eb)|-----------------------------------------------------------------------------------------------------------|
                                                                                                               |
eb)|-19p15-----19p15-----22h24p22-20h22p20-19h20p19-17h19p17~--------------------------------------------------|
Bb)|-------17--------17----------------------------------------15-/Full-----------17-/Fb19-/Full------r-\------|
Gb)|---------------------_________very fast picking_________---17(19)-------------19(21)21(23)---------(21)----| Harmony Gtr.
Db)|-----------------------------------------------------------------------------------------------------------|
Ab)|-----------------------------------------------------------------------------------------------------------|
Eb)|-----------------------------------------------------------------------------------------------------------|


eb)|-12------14--15------17--14------15--17------19----------------------14--12------14--10~~--------------|
Bb)|-------------------------------------------------12------13--15----------------------------------------|
Gb)|-------------------------------------------------------------------------------------------------------| Lead Gtr.
Db)|-------------------------------------------------------------------------------------------------------|
Ab)|-------------------------------------------------------------------------------------------------------|
Eb)|-------------------------------------------------------------------------------------------------------|
                                                                                                           |
eb)|-15------17--19------20--17------19--20------22----------------------17--15------17--14~~--------------|
Bb)|-------------------------------------------------15------17--19----------------------------------------|
Gb)|-------------------------------------------------------------------------------------------------------| Harmony Gtr.
Db)|-------------------------------------------------------------------------------------------------------|
Ab)|-------------------------------------------------------------------------------------------------------|
Eb)|-------------------------------------------------------------------------------------------------------|
Comments