Iced Earth - Trannsylvania Chords & Tabs

 

Trannsylvania Chords & Tabs

Iced Earth Chords & Tabs

Version: 1 Type: Tab 0 ratings
1 star 2 stars 3 stars 4 stars 5 stars
comments

Trannsylvania Tab

Hey guys whats up well i didnt see any Iced Earth
guitar stuff and i wanted to start off with this song
cuz damn it rocks well i dont got all of it just the beginning
for now but its such a cool riff


                        "Transylvania"
                        by: Iced Earth

e|-----------------------------------------------------|
B|-----------------------------------------------------|
G|---6---------6---------6---------4-9-6---------------|
D|---6---------6---------6---------4-9-6---------------|
A|---4-4-4-4-4-4-4-4-4-4-4-4-4-4-4-2-7-4-4-4-4-4-------|
E|-----------------------------------------------------|
       p.m.---   p.m.---   p.m.---       p.m.----------|

e|-----------------------------------------------------|
B|-----------------------------------------------------|
G|---4-9-8---------8---------8---------4-9-8-----------|
D|---4-9-8---------8---------8---------4-9-8-----------|
A|---2-7-6-6-6-6-6-6-6-6-6-6-6-6-6-6-6-6-2-6-6-6-6-6-6-|
E|-----------------------------------------------------|
           p.m.---   p.m.---   p.m.---       p.m.------|
[ Tab from: http://www.guitartabs.cc/tabs/i/iced_earth/trannsylvania_tab.html ]
k u get the idea on that part then theres these two little chords
B5 and C#5 and then this riff


e|-----------------------------------------------------|
B|-----------------------------------------------------|
G|-----------------------------------------------------|
D|---------4p3---------4p3----------------------4p3----|
A|-5-555-5-----5-555-5------3-333-3-1-3-5-555-5--------|
E|-----------------------------------------------------|
  p.m.----     p.m.---      p.m.-----------------------|

then theres that riff i think a whole step down im making this
up off the top of my head i figured it out a minute ago
but my guitar is downstairs ill get the exact tab later
im pretty sure what i have it right

and then this

e|----------------------------------------------------|
B|----------------------------------------------------|
G|10--8--12-12-12-12----------------------------------|
D|10--8--12-12-12-12----------------------------------|
A|8---6--10-10-10-10----------------------------------|
E|----------------------------------------------------|

im working on gettin the whole song..ill have it sooner or later
the solo sounds hard but ill bang it out piece by piece
corrections and stuff email bronxbomberznyy@yahoo.com
thanks
-Dan
Comments