Iced Earth - The Funeral Chords & Tabs

 

The Funeral Chords & Tabs

Iced Earth Chords & Tabs

Version: 1 Type: Tab 0 ratings
1 star 2 stars 3 stars 4 stars 5 stars
comments

The Funeral Tab

   
#-------------------------------PLEASE NOTE------------------------------#
#         This file is the author's own work and represents their        #
#  interpretation of the song. You may only use this file for private    # #                      
study, scholarship, or research.                  #
#------------------------------------------------------------------------#

  
Iced Earth:  Funeral
               


Tuning: Eb

Intro
Guitar 1 (Clean)           x4
eb|----0------0-------------|
Bb|-10---10-9---9----0------|
Gb|---------------10---10-9-|  -------|
Db|-------------------------|         |
Ab|-------------------------|         |
Eb|-------------------------|         |
                                 x4   |-- Play 2x
eb|-------------------------------|   |
Bb|----0-------0------------------|   |
Gb|-12---12-11---11----0------0---|   |
Db|-----------------12---12-9---9-| --|
Ab|-------------------------------|
Eb|-------------------------------|

                           x4
eb|----0------0-------------|--0--|
Bb|-10---10-9---9----0------|--0--|
Gb|---------------10---10-9-|--9--|
Db|-------------------------|-----|
Ab|-------------------------|-----|
Eb|-------------------------|-----|


Guitar 2                   x4
eb|-------------------------|
Bb|-------------------------|
Gb|-------------------------|
Db|-------------------------|  -------|
Ab|--2----------------------|         |
Eb|--0----------------------|         |
                                 x4   |
eb|-------------------------------|   |-- Play 2x
Bb|-------------------------------|   |
Gb|-------------------------------|   |
Db|-------------------------------| --|
Ab|--5----------------------------|
Eb|--3----------------------------|

                           x4
eb|-------------------------|-----|
Bb|-------------------------|-----|
Gb|-------------------------|-----|
Db|-------------------------|-----|
Ab|--2----------------------|--2--|
Eb|--0----------------------|--0--|



                                  TIME: 0:43
Guitar 1
eb|-------------------------|
Bb|-------------------------|
Gb|-------------------------|
Db|-------------------------|
Ab|--7---------7----7----5--|
Eb|--5---------5----5----3--|

eb|-------------------------|
Bb|-------------------------|
Gb|-------------------------|
Db|--9---------9----9---10--|
Ab|--7---------7----7----8--|
Eb|-------------------------|

eb|-------------------------|
Bb|-------------------------|
Gb|-------------------------|
Db|-------------------------|
Ab|--7---------7----7----5--|
Eb|--5---------5----5----3--|

eb|-------------------------|
Bb|-------------------------|
Gb|-------------------------|
Db|--9----------------------|
Ab|--7---------2----2----5--|
Eb|------------0----0----3--|


Guitar 2                     x2
eb|---------------------------|
Bb|---------------------------|
Gb|---------------------------|
Db|-10p7-7-8-7-7-10p7-7-8-7-7-|
Ab|---------------------------|
Eb|---------------------------|
         *   * *      *   * *
                             x2
eb|---------------------------|
Bb|---------------------------|
Gb|---------------------------|
Db|---------------------------|
Ab|-10p7-7-8-7-7-10p7-7-8-7-7-|
Eb|---------------------------|
         *   * *      *   * *

                                 TIME: 0:59

Guitar 1
eb|---------------------------------|
Bb|---------------------------------|
Gb|---------------------------------|
Db|---------------------------------|
Ab|-7--------7--------7--------7--5-|
Eb|-5--5-555-5--5-555-5--5-555-5--3-|
       * ***    * ***    * ***
eb|---------------------------------|
Bb|---------------------------------|
Gb|---------------------------------|
Db|-9--------9--------9--------9-10-|
Ab|-7--------7--------7--------7--8-|
Eb|----0-000----0-000----0-000------|
       * ***    * ***    * ***
eb|---------------------------------|
Bb|---------------------------------|
Gb|---------------------------------|
Db|---------------------------------|
Ab|-7--------7--------7--------7--5-|
Eb|-5--5-555-5--5-555-5--5-555-5--3-|
       * ***    * ***    * ***
eb|------------------------------------|
Bb|------------------------------------|
Gb|------------------------------------|
Db|-9--------9--------9--------9-10----|
Ab|-7--------7--------7--------7--8--2-|
Eb|----0-000----0-000----0-000-------0-|
       * ***    * ***    * ***

Guitar 2                     x2
eb|---------------------------|
Bb|---------------------------|
Gb|---------------------------|
Db|-10p7-7-8-7-7-10p7-7-8-7-7-|
Ab|---------------------------|
Eb|---------------------------|
                             x2
eb|---------------------------|
Bb|---------------------------|
Gb|---------------------------|
Db|---------------------------|
Ab|-10p7-7-8-7-7-10p7-7-8-7-7-|
Eb|---------------------------|


                                 TIME: 1:15

eb|-----------------------------------|
Bb|-----------------------------------|
Gb|-----------------------------------|
Db|-----------------------------------|
Ab|-----------------------------------|
Eb|-0-000-000-000-000-000-000-000-000-|
    * *** *** *** *** *** *** *** ***

                                 TIME: 1:18

Guitar 1                            x8
eb|----------------------------------|
Bb|----------------------------------|
Gb|----------------------------------|
Db|----------------------------------|
Ab|---------------5-----------3---2--|
Eb|-0-000-000-000-3-0-000-001---1----|
    * *** *** ***   * *** ***   *
Guitar 2                                                         x2
eb|---------------------------------------------------------------|
Bb|---------------------------------------------------------------|
Gb|---------------------------------------------------------------|
Db|--------9-10-9----9-10-9-7--7\-5--5\-2--2-3p2p0-2--3p2p0-3p2p0-|
Ab|-7----7--------------------------------------------------------|
Eb|---------------------------------------------------------------|


                                 TIME: 1:38

Guitar 1
eb|----------------------------------|
Bb|----------------------------------|
Gb|----------------------------------|
Db|----------------------------------|
Ab|---------------5-----------3---2--|
Eb|-0-000-000-000-3-0-000-001---1----|
    * *** *** ***   * *** ***   *
Guitar 2
eb|-----------------------------------|
Bb|-----------------------------------|
Gb|-----------------------------------|
Db|---------------12-----------10---9-|
Ab|-7-777-777-777-10-7-777-778----8---|
Eb|-----------------------------------|
    * *** *** ***    * *** ***    *



                                TIME: 1:48

Guitar 1                            x8
eb|----------------------------------|
Bb|----------------------------------|
Gb|----------------------------------|
Db|----------------------------------|
Ab|---------------5-----------3---2--|
Eb|-0-000-000-000-3-0-000-001---1----|
    * *** *** ***   * *** ***   *
Guitar 2                                                         x2
eb|---------------------------------------------------------------|
Bb|---------------------------------------------------------------|
Gb|---------------------------------------------------------------|
Db|--------9-10-9----9-10-9-7--7\-5--5\-2--2-3p2p0-2--3p2p0-3p2p0-|
Ab|-7----7--------------------------------------------------------|
Eb|---------------------------------------------------------------|


                                TIME: 2:07

Guitar 1                            x4
eb|----------------------------------|-----|
Bb|----------------------------------|-----|
Gb|----------------------------------|-----|
Db|----------------------------------|-----|
Ab|---------------5-----------3---2--|--2--|
Eb|-0-000-000-000-3-0-000-001---1----|--0--|
    * *** *** ***   * *** ***   *
Guitar 2                             x4
eb|-----------------------------------|-----|
Bb|-----------------------------------|-----|
Gb|-----------------------------------|-----|
Db|---------------12-----------10---9-|-----|
Ab|-7-777-777-777-10-7-777-778----8---|--2--|
Eb|-----------------------------------|--0--|
    * *** *** ***    * *** ***    *


                                TIME: 2:22


Guitar 1 (clean w/ weird effect)     x12
eb|------------7----------------8------|
Bb|-------7-8----8-7-------7-8-----8-7-|
Gb|------------------------------------|
Db|-----9----------------9-------------|
Ab|------------------------------------|
Eb|--0----------------0----------------|


Solo over the above riff
eb|------------------------------------------------------|
Bb|------------------------------------------------------|
Gb|-9----------------------------------------------------|
Db|----7-9----9-10-9-7-5-5-7-9\--2-3---2----2-2-3-2---2~-|
Ab|----------------------------------5--------------5----|
Eb|------------------------------------------------------|

eb|----------------------------------------------------------|
Bb|----------------------------------------------------------|
Gb|-9-------7------------------------------------------------|
Db|----9-10----10-9-7-9-10\--5-7-9\--2-3---2----2-2-3-2---2~-|
Ab|--------------------------------------5--------------5----|
Eb|----------------------------------------------------------|

eb|-----------------------------------------------------|
Bb|-----------------------------------------------------|
Gb|-----------------------------------------------------|
Db|------7-9\-------7-9\--------------------------------|
Ab|----7----------7-------7--9-10-9-7-5-----------------|
Eb|--0----------0-----------------------7-7--7-8-7-5-7~-|

eb|----------------------------------------------------|
Bb|----------------------------------------------------|
Gb|----------------------------------------------------|
Db|------7-9\-------7-9\-------------------------------|
Ab|----7----------7-------7--9-10-9-7-5----------------|
Eb|--0----------0-----------------------7\-5--5-7-8-7~-|

End solo

                               TIME: 3:12

Both guitars
eb|-----------------------------------------|
Bb|-----------------------------------------|
Gb|-----------------------------------------|
Db|-----------------------------------------|
Ab|-2-------3-------2-------5-5-5-5-3-3-3-3-|
Eb|-0--0-0--1--1-1--0--0-0--3-3-3-3-1-1-1-1-|
       * *     * *     * *    * * * * * * *
eb|----------------------------------------|
Bb|----------------------------------------|
Gb|----------------------------------------|
Db|----------------------------------------|
Ab|-2-------3--3-3-2-------5-5-5-5-3-3-3-3-|
Eb|-0--0-0--1--1-1-0--0-0--3-3-3-3-1-1-1-1-|
       * *            * *    * * *   * * *
                                                    x2
eb|--------------------------------------------------|
Bb|--------------------------------------------------|
Gb|--------------------------------------------------|
Db|---------7----------------------------------------|
Ab|-7--9-10----10-9-7-9-10\--7-7-------------5-555-6-|
Eb|------------------------------6-6-667-777---------|
                                     *** *** * ***

                                 TIME:  3:40

Guitar 1                                                  x4
eb|--------------------------------------------------------|
Bb|--------------------------------------------------------|
Gb|--------------------------------------------------------|
Db|-5-7--777-8-7---5--555-7-5---5--555-7-5-----------------|
Ab|--------------8------------8------------8-7--77-8-7---5-|
Eb|----------------------------------------------------8---|

Guitar 2                                                  x4
eb|--------------------------------------------------------|
Bb|--------------------------------------------------------|
Gb|-4-5--555-7-5---4--444-5-4---4--444-5-4-----------------|
Db|--------------7------------7------------5-7--55-5-7-----|
Ab|----------------------------------------------------7-8-|
Eb|--------------------------------------------------------|


                                 TIME: 4:10
Solo Rhythm
Guitar 1
eb|----------------------------------------|
Bb|----------------------------------------|
Gb|----------------------------------------|
Db|-----------12--12\----5--5----7----7--7-|
Ab|--7--------10--10\--0-3--3--0-5--0-5--5-|
Eb|--5----5-5------------------------------|
          * *          *       *    *
eb|--------------------------------------|
Bb|--------------------------------------|
Gb|--------------------------------------|
Db|--------------------5--5----7----7--7-|
Ab|--7---------5--5----3--3--0-5--0-5--5-|
Eb|--5----5-5--3--3--0-------------------|
          * *        *       *    *
eb|----------------------------------------|
Bb|----------------------------------------|
Gb|----------------------------------------|
Db|-----------12--12\----5--5----7----7--7-|
Ab|--7--------10--10\--0-3--3--0-5--0-5--5-|
Eb|--5----5-5------------------------------|
          * *          *       *    *
eb|---------------------------------------|
Bb|---------------------------------------|
Gb|---------------------------------------|
Db|--------------------5----------------7-|
Ab|--7---------5--5----3--3-3-3-3-3-3-3-5-|
Eb|--5----5-5--3--3--0--------------------|
          * *        *    * * * * * * *
[ Tab from: http://www.guitartabs.cc/tabs/i/iced_earth/the_funeral_tab.html ]
Solo
eb|-----------------------------------------------------------------|
Bb|----------------------------------------------------15-------17~-|
Gb|-------------------------------------------16----16-------16-----|
Db|----------------12----12-16----14-17-14-17----17-------17--------|
Ab|----12-15-12-15----14-------15-----------------------------------|
Eb|-15--------------------------------------------------------------|

eb|-19----------------------------19-17h19p17\15-15h17p15\14-15b17r15~-|
Bb|----17----18----16----17----18--------------------------------------|
Gb|-------16----16----16----16-----------------------------------------|
Db|--------------------------------------------------------------------|
Ab|--------------------------------------------------------------------|
Eb|--------------------------------------------------------------------|

eb|---------------------------------------------------------|
Bb|---------------------------------------------------------|
Gb|-12-12h14p12-9--------------------------------7-9/12-9~--|
Db|---------------12-11-9-9------------------8-9------------|
Ab|-------------------------12-10-9---7h9-10----------------|
Eb|---------------------------------10----------------------|

eb|------------------------------------------------------------|
Bb|------------------------------------------------------------|
Gb|-12-12-12h14-9-----------------------------------9----------|
Db|---------------12-11-9--------------------8-9-12---12-12~---|
Ab|-----------------------12-10-9-------9-10-------------------|
Eb|-------------------------------10-12------------------------|

eb|-------------------------------------------------------|
Bb|-------------------------------------------------------|
Gb|-999-7------7--777-------------------------------------|
Db|-------10-7--------10-9----10--101010-9-7----9-----7~--|
Ab|------------------------10----------------10----10-----|
Eb|-------------------------------------------------------|

eb|-------------------------------------------------------|
Bb|-------------------------------------------------------|
Gb|-999-7------7--777-------------------------------------|
Db|-------10-7--------10-9----10--101010-9-7----9-----7~--|
Ab|------------------------10----------------10----10-----|
Eb|-------------------------------------------------------|

End solo

                               TIME: 4:37

Guitar 1
eb|-------------------------------|
Bb|-------------------------------|
Gb|-------------------------------|
Db|-2-----------------------------|
Ab|-0--0-000-000-5----------------|
Eb|--------------3--3-3-333-333-0-|
       * *** ***    * * *** *** *
eb|--------------------------------|
Bb|--------------------------------|
Gb|--------------------------------|
Db|-5------------7-----------------|
Ab|-3--3-333-330-5--5-5-555-555-00-|
Eb|--------------------------------|
       * *** ***    * * *** *** **

Guitar 2
eb|----------------------------------------|
Bb|----------------------------------------|
Gb|-----------9-9-7-7------------7-7-------|
Db|-7-7-10-10----------------9-9-----10-10-|
Ab|--------------------10-10---------------|
Eb|----------------------------------------|
    * *  *  * * * * *   *  * * * * *  *  *
eb|---------------------------------------|
Bb|---------------------10------8---------|
Gb|---------------------------------------|
Db|-------7-7-10-10-9-7----10-9---10-9-7--|
Ab|-10-10---------------------------------|
Eb|---------------------------------------|
     *  * * *  *  * * *       *

Guitar 3 (Comes in the 3rd and 4th time)
eb|-------------------------------------|
Bb|-----------8-8-7-7----------7-7------|
Gb|-------9-9--------------7-7-----9-9--|
Db|-10-10--------------9-9--------------|
Ab|-------------------------------------|
Eb|-------------------------------------|
     *  * * * * * * *  * * * * * * * *
eb|-------------------------------------------|
Bb|---------------------13-------12-----------|
Gb|------------9-9-7--------------------------|
Db|-9-9-10-10--------10----14-12----14-12-10--|
Ab|-------------------------------------------|
Eb|-------------------------------------------|
    * *  *  *  * * *  *        *


                                  TIME:  4:57

                    x4
eb|------------------|
Bb|------------------|
Gb|-0h2--------------|
Db|-0h2--------------|
Ab|-----0-000-0-0-0--|
Eb|------------------|
        * *** * * *

                                  TIME:  5:02


Guitar 1
eb|---------------------------------|
Bb|---------------------------------|
Gb|---------------------------------|
Db|---------------------------------|
Ab|-7----7-8-7-5----5-8----8-10-8-7-|
Eb|-5----5-6-5-3----3-6----6--8-6-5-|

eb|--------------------------------------|
Bb|--------------------------------------|
Gb|--------------------------------------|
Db|--------------------------------------|
Ab|-7----7-8-7-5----5-8----8-10-8-7----7-|
Eb|-5----5-6-5-3----3-6----6--8-6-5----5-|

Guitar 2
eb|----------------------------------------|
Bb|----------------------------------------|
Gb|----------------------------------------|
Db|-7--7-777-778-7-------------------------|
Ab|----------------10--10-101010-101010-10-|
Eb|----------------------------------------|

eb|----------------------------------|
Bb|----------------------------------|
Gb|----------------------------------|
Db|-8--8-888-8810-8-7--7-777-777-----|
Ab|------------------------------10--|
Eb|----------------------------------|

                                   TIME:  5:11

Guitar 1
eb|--------------------------------|
Bb|--------------------------------|
Gb|--------------------------------|
Db|--------------------------------|
Ab|-5--5-555-55-7-5-3--3-333-333-0-|
Eb|--------------------------------|

eb|--------------------------------|
Bb|--------------------------------|
Gb|--------------------------------|
Db|-3--3-333-33-5-3-2--2-222-222---|
Ab|------------------------------3-|
Eb|--------------------------------|

Guitar 2
eb|---------------------------------|
Bb|---------------------------------|
Gb|---------------------------------|
Db|---------------------------------|
Ab|-8--8-888-88-10-8-7--7-777-777---|
Eb|-------------------------------8-|

eb|---------------------------------|
Bb|---------------------------------|
Gb|---------------------------------|
Db|-7--7-777-77-9-7-6--6-666-666----|
Ab|------------------------------7--|
Eb|---------------------------------|


                                    TIME:  5:20

Guitar 1
eb|-----------------------------------------|
Bb|-----------------------------------------|
Gb|-----------------------------------------|
Db|-7-777-777-778-7-------------------------|
Ab|-----------------10-101010-101010-101010-|
Eb|-----------------------------------------|
    * *** *** *** *  *  * * *  * * *  * * *
eb|-------------------------------------|
Bb|-------------------------------------|
Gb|-------------------------------------|
Db|-788-888-888-8810-8-7-777-777-777----|
Ab|----------------------------------10-|
Eb|-------------------------------------|
    *** *** *** ** * * * *** *** ***  *

Guitar 2
eb|-------------------------------------------|
Bb|-------------------------------------------|
Gb|-------------------------------------------|
Db|-10-101010-101010-1010-12-10-9-999-999-999-|
Ab|-------------------------------------------|
Eb|-------------------------------------------|
     *  * * *  * * *  * *  *  * * *** *** ***
eb|------------------------------------------------------------|
Bb|------------------------------------------------------------|
Gb|------------------------------------------------------------|
Db|-10-1212-121212-121212-1212-14-12-10-101010-101010-101010-9-|
Ab|------------------------------------------------------------|
Eb|------------------------------------------------------------|
     *  * *  * * *  * * *  * *  *  *  *  * * *  * * *  * * * *



                                   TIME:  5:30

Guitar 1
eb|--------------------------------|
Bb|--------------------------------|
Gb|--------------------------------|
Db|--------------------------------|
Ab|-5--5-555-55-7-5-3--3-333-333-0-|
Eb|--------------------------------|

eb|--------------------------------|
Bb|--------------------------------|
Gb|--------------------------------|
Db|-3--3-333-33-5-3-2--2-222-222---|
Ab|------------------------------3-|
Eb|--------------------------------|

Guitar 2
eb|---------------------------------|
Bb|---------------------------------|
Gb|---------------------------------|
Db|---------------------------------|
Ab|-8--8-888-88-10-8-7--7-777-777---|
Eb|-------------------------------8-|

eb|---------------------------------|
Bb|---------------------------------|
Gb|---------------------------------|
Db|-7--7-777-77-9-7-6--6-666-666----|
Ab|------------------------------7--|
Eb|---------------------------------|

Guitar 3
eb|--------------------------------|
Bb|-6--6-666-668-6-5--5-555-555-5/-|
Gb|--------------------------------|
Db|--------------------------------|
Ab|--------------------------------|
Eb|--------------------------------|

eb|---------------------------------------|
Bb|-10-10-101010-101012-10-9--9-999-999-5-|
Gb|---------------------------------------|
Db|---------------------------------------|
Ab|---------------------------------------|
Eb|---------------------------------------|


                                   TIME:  5:40


Guitar 1
eb|-------------------------------------|
Bb|-------------------------------------|
Gb|-9-----10-----9-----10-----9-10-9-10-|
Db|-7-777--7-777-7-777--7-777-7--7-7--7-|
Ab|-------------------------------------|
Eb|-------------------------------------|
      ***    ***   ***    ***
eb|-------------------------------------|
Bb|-------------------------------------|
Gb|-8------9-----8------9-----8--9-8--9-|
Db|-6-666--6-666-6-666--6-666-6--6-6--6-|
Ab|-------------------------------------|
Eb|-------------------------------------|
      ***    ***   ***    ***

Final time
eb|--------------------------------|
Bb|--------------------------------|
Gb|-8------9-----8------9----------|
Db|-6-666--6-666-6-666--6-666666\\-| --> Pick through slide
Ab|--------------------------------|
Eb|--------------------------------|
      ***    ***   ***    ******

Guitar 2 (Comes in the second time)
eb|---------------------------------------------------------|
Bb|-10-101010-11-101010-10-101010-11-101010-10-1010-11-1010-|
Gb|---------------------------------------------------------|
Db|---------------------------------------------------------|
Ab|---------------------------------------------------------|
Eb|---------------------------------------------------------|
        * * *     * * *     * * *     * * *     * *     * *
eb|---------------------------------------|
Bb|--9-999-10-999-9-999-10-999-9-99-10-99-|
Gb|---------------------------------------|
Db|---------------------------------------|
Ab|---------------------------------------|
Eb|---------------------------------------|
       ***    ***   ***    ***   **    **

Final time
eb|-------------------------------|
Bb|--9-999-10-999-9-999-10-999999-|
Gb|-------------------------------|
Db|-------------------------------|
Ab|-------------------------------|
Eb|-------------------------------|
       ***    ***   ***    ******


                                  TIME:  5:59


Both                                 x4
eb|-----------------------------------|
Bb|-----------------------------------|
Gb|-----------------------------------|
Db|---------------12----------10---9--|
Ab|-7-777-777-777-10-7-777-778---8----|
Eb|-----------------------------------|
    * *** *** ***    * *** ***   *


                                  TIME:  6:08


Guitar 1                                    x2
eb|------------------------------------------|------|
Bb|------------------------------------------|------|
Gb|-------11-10---------------11-12----------|------|
Db|-9------9--8--10--10-9------9-10--12--10--|--9\--|
Ab|-7--77---------8---8-7--77--------10---8--|--7\--|
Eb|------------------------------------------|------|
       **                  **

Guitar 2                                    x2
eb|------------------------------------------|-----|
Bb|------------------------------------------|-----|
Gb|------------------------------------------|-----|
Db|------------------------------------------|-----|
Ab|-2-------------3---3-2-------------5---3--|--2--|
Eb|-0-------------1---1-0-------------3---1--|--0--|


Notation:

10b12      = pick the 10th fret, then bend to the 12th fret.
10b12r10   = pick the 10th fret, then bend to the 12th fret,
             then release to the 10th fret.
[10]12r10  = bend to the 12th fret from the 10th fret, pick,
             then release to the 10th fret.
10b12 [14] = pick the 14th fret while holding the previous bend.

10b15*     = tremolo bar bend, from the 10th fret to the 15th fret.
7d2*       = tremolo bar dive, from the 7th fret to the 2nd fret.
12~*       = tremolo bar vibrato.

x   =  mute with fret-hand
*   =  palm mute
X\\ =  pick slide
h   =  hammer-on
p   =  pull-off
~   =  vibrato
t   =  finger tap
/   =  slide up
\   =  slide down
h   =  natural harmonics
a   =  artificial harmonics
(9) =  ghost note
tm  =  trem picking
tr  =  trill

  Visit MetalTabs.com for more metal tablature
Comments