Iced Earth - The Dark Saga Chords & Tabs

 

The Dark Saga Chords & Tabs

Iced Earth Chords & Tabs

Version: 1 Type: Tab 0 ratings
1 star 2 stars 3 stars 4 stars 5 stars
comments

The Dark Saga Tab

   
from the album The Dark Saga

                        tabbed by Rob Hartzog

I will start off by saying that as Iced Earth songs go, this one is pretty easy, 
with the exception of the rhythm parts in triplets. I canít quite nail those yet 
(theyíre FAST!). Iím pretty confident in the fact that the tab is correct, if theyíre 
not, shoot me.  Sending any corrections in would also be helpful.  Enjoy!
By the way, all guitars are tuned down a 1/2 step:  

6=Eb 5=Ab 4=Db 3=Gb 2=Bb 1=Eb

Intro

|------------------------------------------------------------------------|
|------------------------------------------------------------------------|
|--9------9---9------9---9--9--/11--9-------9\-5------5--/-9------|
|--9------10p9------10p9--10/12--10-----10\5------5--/-10-----|
|------------------------------------------------------------------------|
|------------------------------------------------------------------------|
|
|------------------------------------------------------------------------|
|------------------------------------------------------------------------|
|------------------------------------------------------------------------|
|--2------3---2------3-------x---5---5------5--2------------3------|
|--2------3---2------3-------x---5---5------3--2------------3------|
|--0------1---0------1-------x---3---3------3--0------------1------|

Verse

|--------------------------------------------------------------------------------------------------------|
|--------------------------------------------------------------------------------------------------------|
|--------------------------------------------------------------------------------------------------------|
|--2------------------------------------------3\-2-----------------------------3-----------3------3\--|
|--2------------------------------------------3\-2-----------------------------3-----------3------3\--|
|--0--000-000-000-000-000-000-000-1\-0-000-000-000-000000-1-000000-1------1\--|
        . . .  . . .  . .  .  . . .  . . .  . . .  . . .           . . .  . . .  . . .  . . . . . .      . . . . . .

Chorus                                  4th x

|----------------------------------|------|
|----------------------------------|------|
|----------------------------------|------|
|--2-------------------------------|--2--|
|--2-------------------------------|--2--|
|--0--00--3--00--2--000000--|--0--|
        .  .       .  .       . . . . . .

Bridge
[ Tab from: http://www.guitartabs.cc/tabs/i/iced_earth/the_dark_saga_tab.html ]
|------------------------------------------------------------------------------------------|
|------------------------------------------------------------------------------------------|
|--------------9---\---------------12---\----------------9---\------------------7-/-10--|
|--------------9---\---------------12---\----------------9---\------------------7-/-10--|
|--------------7---\---------------10---\----------------7---\------------------5-/-8---|
|--000-000----------000-000------------000-000-------------000-000-----------|
|   . . .  . . .              . . .  . . .                . . .   . . .                 . . .  . . .


/------------
//
// This piece of tab was screwed up probably due to the use of Microsoft Word
// and what has be salvaged from that mess can be found below.
//
/------------


|--------4th x----------------------------------------------------------------------------|
|--8------------------------------------------\-3------------------------------------------|
|--10-----------------------------------------\-5-------?????????????????????????????????????????


/------------
//
// From this point on, the tab is genuine as it was submitted by the author.
//
/------------


Outro Lead 1

|-----------------------------------------------------------------------------------------------------------|
|-----------------------------------------------------------------------------------------------------------|
|-----------------------------------------------------------------------------------------------------------|
|------9----------9--/12--10p9-10------12--10p9----9------9--10p9--------10p9--7----10p9--|
|--7----------7-----------------------------------------7--------------------10--------------------------|
|-----------------------------------------------------------------------------------------------------------|

Outro Lead 2

|----------18------------------18-------------------------15----------------------14------------|
|------17------------------17-------------------------17------15------------17-----------------|
|--16---------16------16----------16--17------17---------------------16-----------16--17--|
|----------------------------------------------------------------------------------------------------|
|----------------------------------------------------------------------------------------------------|
|----------------------------------------------------------------------------------------------------|

The song is played as follows:

Intro 4x                Chorus 4x
Verse 6x                Outro Rhythm 2x
Chorus 4x               Outro Rhythm 4x
                        Outro Lead 1 4x
Verse 6x
                        Outro Rhythm        repeat
Chorus 4x               Outro Lead 1        and
                        Outro Lead 2        fade
Bridge 4x

                             x

. . .  . . . = palm mutes    x = muted strings    /  \ = slide

/------------
//
// The appendix, as sent by the author, was corrupted and therefor deleted.
// If the author wishes to add this appendix, resubmit the tab in plain text
// format.
//
/------------
Comments