Iced Earth - Stormrider Chords & Tabs

 

Stormrider Chords & Tabs

Iced Earth Chords & Tabs

Version: 1 Type: Bass Tab 0 ratings
1 star 2 stars 3 stars 4 stars 5 stars
comments

Stormrider Bass Tab

   
Iced Earth: Stormrider

tab by: Alex Parks   big_alparks@hotmail.com

FIND EVERY ICED EARTH SONG AND
THE MOST UPDATED VERSION OF THIS SONG AT:

 The Frozen Palace
 http://truemetal.org/icedearth/
 
This is a killer song done by the all mighty Iced Earth
Any questions or comments e-mail me


Gb|----------------|
Db|-------%R%------|
Ab|----------------|
Eb|----------------|

Near the end of the accoustic part
Gb|-------------------------------------------------------------------|
Db|-------------------------------------------------------------------|
Ab|-12----10----12----10-----8---7--5---------------------------------|
Eb|------------------------------------00000000000000000-0 [let ring]-|

Riff 1

Gb|---------------------------------|
Db|---------------------------------|
Ab|---------------------------------|
Eb|-0-0-2-000-3-000-6-000--2--2-2-2-|

   "Storming demons......"

Gb|---------------------------------|
Db|---------------------------------|
Ab|---------------------------------|
Eb|-0-0-2-000-3-000-2-000--1--1-1-1-|

   "The time is almost here....."

Riff 2

Gb|---------------------------------|
Db|---------------------------------|
Ab|---------------------------------|
Eb|-0-000-000-000-3-0-000-000-000-6-|

  "I can feel......."

Gb|---------------------------------------------|
Db|---------------------------------------------|
Ab|---------------------------------------------|
Eb|-0-000-000-000-2-0-000-3-3p0-1-0-000-3-3-2-1-|

  "....the pain is its reality..."


Riff 3

Gb|-----------------------------------------|
Db|-----------------------------------------|
Ab|-----------------------------------------|
Eb|-0--00-6-3--2--00-3-2--1--00-2-1-0--//---| speed pick the slide

  "Fight on, grab on....."


Riff 4

Gb|---------------------------------|
Db|---------------------------------|
Ab|-------7-------7-------7-------7-|
Eb|-0-000---0-000---0-000---0-000---|


Gb|------------------------------------------|
Db|------------------------5-----7-----8-7-5-|
Ab|-------7\-------5-5-5-5---5-5---5-5-------|
Eb|-0-000----0-000---------------------------|


Gb|-----------------------------------------|
Db|------------------------5-----7-----4tr5-|
Ab|-------7\-------5-5-5-5---5-5---5-5------|
Eb|-0-000----0-000--------------------------|


Gb|------------------------------------------|
Db|------------------------5-----7-----8-7-5-|
Ab|-------7\-------5-5-5-5---5-5---5-5-------|
Eb|-0-000----0-000---------------------------|


Gb|------------------------------------------|
Db|------------------------5-----7-----4-5-4-|
Ab|-------7\-------5-5-5-5---5-5---5-5-------|
Eb|-0-000----0-000---------------------------|


Riff 5
                                  Last Time
eb|------------------------------|--------|
Bb|------------------------------|--------|
Gb|------------------------------|--------|
Db|------------------------------|--------|
Ab|------------------------------|--------|
Eb|-0-000-0-000-0-000-0-000-...--|-10-8-7-|


Solo Bass Part               x3

Gb|---------------------------|---------------|
Db|---------------------------|---------------|
Ab|--8-----7------------------|---------------|
Eb|----0-0---000-0-000-10-8-7-|--7--8--10-8-7-|

                             x3

Gb|---------------------------|---------------|
Db|---------------------------|---------------|
Ab|--8-----7------------------|---------------|
Eb|----0-0---000-0-000-10-8-7-|--5--6--10-8-7-|

                             x3

Gb|---------------------------|---------------|
Db|---------------------------|---------------|
Ab|--8-----7------------------|--7--8---------|
Eb|----0-0---000-0-000-10-8-7-|--------10-8-7-|

                             x3

Gb|---------------------------|-------|
Db|---------------------------|-------|
Ab|--8-----7------------------|--5--6-|
Eb|----0-0---000-0-000-10-8-7-|-------|

[ Tab from: http://www.guitartabs.cc/tabs/i/iced_earth/stormrider_btab.html ]
Riff 7
                              					   1x
Gb|-----------------------------------------------------------------|
Db|-----------------------------------------------------------------|
Ab|-------------------------5---4-----------------------------------|
Eb|-2-----------------------------------------------5-----6-----5-5-|


The second time, guitar 2 plays this 				   1x
eb|-----------------------------------------------------------------|
Bb|-----------------------------------------------------------------|
Gb|-----------------------------------------------------------------|
Db|-------------4-----2---------------------------------------------|
Ab|-------4-----------------5---4-----------------------------------|
Eb|-2-------------------------------3---------------5-555-6-666-5-5-|


Riff 7a								   2x
eb|-----------------------------------------------------------------|
Bb|-----------------------------------------------------------------|
Gb|-----------------------------------------------------------------|
Db|-------------4-444-2-222-----------------------------------------|
Ab|-------4-444-------------5-5-4-4---------------------------------|
Eb|-2-222---------------------------3-333-3-333-333-5-555-6-666-5-5-|


Riff 8								    1x
eb|------------------------------------------------------------------|
Bb|------------------------------------------------------------------|
Gb|------------------------------------------------------------------|
Db|------------------------------------------------------------------|
Ab|------------------------------------------------------------------|
Eb|-0-000-000-000-000-000-000-000-00-2-222-222-222-222-222-222-222-2-|

							       3x
eb|-------------------------------------------------------------|
Bb|-------------------------------------------------------------|
Gb|-------------------------------------------------------------|
Db|-------------------------------------------------------------|
Ab|-----------------2-----3-----2-----------------4-----5-----4-|
Eb|-000-000-000-000---0-0---0-0---222-222-222-222---2-2---2-2---|Riff 9						      1x
Gb|----------------------------------------------------|
Db|----------------------------------------------------|
Ab|----------------------------------------------------|
Eb|-0-[let ring]--------000-0-[let ring]-----------000-|

Riff 9a
Gb|----------------------------------------------------|
Db|-------9-----7--------------------------------------|
Ab|--------------10-9--------------/7-7-7-10-7-7-------|
Eb|-0-0-0---0-0-------0-000-0--0-0---------------0-000-|


Riff 9b
Gb|---------------------------------------------------|
Db|---------------------------------------------------|
Ab|-------5-----3-----6-------------------------------|
Eb|-3-333---333---333---333-2-222-2-2-2-3-2-2-3-2-3-0-|


Play Riff 2   "Now the rider......."
Play Riff 3   "Fight on, grab on....."

Ending

Gb|-----------------------------------|
Db|-----------------------------------|
Ab|-----------------------------------|
Eb|-0-000-000-00-6-3-2-222-222-22-3-2-|


Gb|-----------------------------------|
Db|-----------------------------------|
Ab|-----------------------------------|
Eb|-1-111-111-11-2-1-0-000-000-000-00-|


Gb|-----------------------------------|
Db|-----------------------------------|
Ab|-----------------------------------|
Eb|-0-000-000-00-5-3-2-222-222-22-3-2-|

		    wait until guitar is done
Gb|------------------------------------------------------------|
Db|-----------------------------------------%R%----------------|
Ab|---------------------------------------------------8-----7\-|
Eb|-1-111-111-11-2-1-0-0000000000-[let ring]---10-8-7---0-0----|


And thats that, have fun learnin' this sweet ass song!

notation:
^   =  bend [ ^ = half, ^^ = whole, etc. ]
^r  =  bend and release
x   =  mute with fret-hand
*   =  mute with palm-hand
h   =  hammer-on
p   =  pull-off
~   =  vibrato
t   =  tap-on
/   =  slide up
\   =  slide down
h.  =  harmonics
(9) =  ghost note
tm  =  trem picking
tr  =  trill
Comments