Iced Earth - Iced Earth Chords & Tabs

 

Iced Earth Chords & Tabs

Iced Earth Chords & Tabs

Version: 3 Type: Tab 0 ratings
1 star 2 stars 3 stars 4 stars 5 stars
comments

Iced Earth Tab

   
Iced Earth - Iced Earth (Alive In Athens) 

Tuning: eb Bb Gb Db Ab eb

Solo
eb:--------------------------------------------------------------------|
Bb:--15p13\12--13-------------13h17p13p0h13p0h13-----------------------|
Gb:------------------------14---------------------------14/16--16--17--|
Db:----------------14---14------------------------14-------------------|
Ab:--------------------------------------------------------------------|
Eb:--------------------------------------------------------------------|

eb:----------------19----------17---------15-------------------------------|
Bb:--------------------17----------15---------13--15^r15--17^r17-----------|
Gb:-16--17--16-------------16----------14----------------------------------|
Db:------------------------------------------------------------------------|
Ab:------------------------------------------------------------------------|
Eb:------------------------------------------------------------------------|

eb:--------------------------------19p17p15-20p17p15-19p17p15-20p17p15-|
Bb:--19^r19--20^r20--20--22--20----------------------------------------|
Gb:--------------------------------------------------------------------|
Db:--------------------------------------------------------------------|
Ab:--------------------------------------------------------------------|
Eb:--------------------------------------------------------------------|
[ Tab from: http://www.guitartabs.cc/tabs/i/iced_earth/iced_earth_tab_ver_3.html ]
eb:-19p17p15-20p17p15-19p17p15-20p17p15-19p17p15-20p17p15-19p17p15-|
Bb:----------------------------------------------------------------|
Gb:----------------------------------------------------------------|
Db:----------------------------------------------------------------|
Ab:----------------------------------------------------------------|
Eb:----------------------------------------------------------------|

eb:-20p17p15--21b23r21---20~--22--20--19--20--19--17--15h19p15-----------|
Bb:-------------------------------------------------------------17-------|
Gb:----------------------------------------------------------------16----|
Db:-------------------------------------------------------------------17-|
Ab:----------------------------------------------------------------------|
Eb:----------------------------------------------------------------------|

eb:-151515191515201515-------------------------------------------|
Bb:---------------------15b17r15--17b19r17--19b21r19--21b23r21---|
Gb:--------------------------------------------------------------|
Db:--------------------------------------------------------------|
Ab:--------------------------------------------------------------|
Eb:--------------------------------------------------------------|

Notation:

10^        = bend a quarter step.
10b11      = bend a half step.
10b12      = bend a full step.
10b12r10   = bend and release.
[10]12     = pre-bend.
[10]12r10  = pre-bend and release.
{14}       = pick the 14th fret while holding the most 
             previous bend.
<17>       = touch the string above the 17th fret while 
             previous note(s) is(are) still ringing.

10b13*     = tremolo bar bend, from the 10th fret to the 13th fret.
7d4*       = tremolo bar dive, from the 7th fret to the 4th fret. 
12~*       = tremolo bar vibrato.

x   =  mute with fret-hand
*   =  palm mute
X\\ =  pick slide
h   =  hammer-on
p   =  pull-off
~   =  vibrato
t   =  finger tap
/   =  slide up
\   =  slide down
h.  =  natural harmonics
a   =  artificial harmonics
(9) =  ghost note
tm  =  trem picking
tr  =  trill
Comments