Iced Earth - Iced Earth Chords & Tabs

 

Iced Earth Chords & Tabs

Iced Earth Chords & Tabs

Version: 1 Type: Tab 0 ratings
1 star 2 stars 3 stars 4 stars 5 stars
comments

Iced Earth Tab

   
Artist: Iced Earth
Song: Iced Earth
Tuning: Eb Ab Db Gb Bb Eb
Tabbed by: Metal Matt

The world is hurting for Iced Earth tab's so I figured why not. Enjoy.

 Intro
|-----------------------------------------------------|
|-----------------------------------------------------|
|----4-5-5-4h5p4h5p4-4h5p4h5p4-4h5p4h5p4-4h5p4h5p4p0--|
|--4--------------------------------------------------|
|--4--------------------------------------------------|
|--2--------------------------------------------------|

                                             End Intro
|-----------------------------------------------------|
|-----------------------------------------------------|
|-----------------------------------------------------|
|--4-5-4-5-4h5p4h5p4-4h5p4h5p4-4h5p4h5p4-4h5p4h5p4p0--|
|--4--------------------------------------------------|
|--2--------------------------------------------------|

 Riff A
|---------------------------------------------|
|---------------------------------------------|
|---------------------------------------------|
|--------4-5-----5-5-----5-----5---------5-4--|
|--4-----2-3-3-3-3-3-3-3-3-3-3-3-3-3-3-3-3-2--|
|--2-2-2--------------------------------------|
     . .     . .     . .   . .   . . . . 
                                    End Riff A
|---------------------------------------------|
|---------------------------------------------|
|---------------------------------------------|
|---------------------------------------------|
|--5-4---5-4-----4-4-----4-----4---------5-4--|
|--3-2-2-3-2-2-2-2-2-2-2-2-2-2-2-2-2-2-2-3-2--|
       .     . .     . .   . .   . . . .
 Riff 1A                                         End Riff 1A
|-----------------------------------------------------------|
|-----------------------------------------------10------12--|
|-------11-------------13------------9--------9------11-----|
|----11----11-------13----13-------9---9----7------9--------|
|--9----------9--11----------11--7-------7------------------|
|-----------------------------------------------------------|

 Riff 1B                           End Riff 1B
|---------------------------------------------|
|---------------------------------10------12--|
|--11-11-11--13-13-13--9-9-9----9------11-----|
|--11-11-11--13-13-13--9-9-9--7------9--------|
|---9--9--9--11-11-11--7-7-7------------------|
|---------------------------------------------|

 Riff 1C                                         End Riff 1C
|-----------------------------------------------------------|
|-----------------------------------------------10------12--|
|--11-11-11--11/13-13-13-13--13\9-9-9-9--9----9------11-----|
|--11-11-11--11/13-13-13-13--13\9-9-9-9--9--7------9--------|
|---9--9--9---9/11-11-11-11--11\7-7-7-7--7------------------|
|-----------------------------------------------------------|

 Riff B                  
|----------------------------------------|
|----------------------------------------|
|----------------------------------------|
|----------------------------------------|
|-----4-5-4--4-5-4------2-3-5-3-2--------|
|--2---------------3--3-----------3-2-0--|

                             End Riff B
|--------------------------------------|
|--------------------------------------|
|--------------------------------------|
|--------------------------------------|
|-----4-5-4--4-5-4-2-------------------|
|--2------------------5-3-2-5-3-2-5-3--|

Fill 1
|-----|
|-----|
|-----|
|--4--|
|--4--|
|--2--|
[ Tab from: http://www.guitartabs.cc/tabs/i/iced_earth/iced_earth_tab.html ]
 Riff 2A                                           End Riff 2A
|-------------------------------------------------------------|
|-------------------------------------------------------------|
|-------------------------------------------------------------|
|--11-------------11-------------12-------------11-------9-9--|
|---9-999-999-999----9-9-999-999----9-9-999-999----9-9-9-7-7--|
|-------------------------------------------------------------|
      ... ... ...    . . ... ...    . . ... ...    . . .
 Riff 2B                                   
|-----------------------------------------------------|
|-----------------------------------------------------|
|-----------------------------------------------------|
|--14----------------------14---------------------15--|
|--12-121212-121212-121212----12-12-121212-121212-----|
|-----------------------------------------------------|
       . . .  . . .  . . .     .  .  . . .  . . . 
                                           End Riff 2B
|-----------------------------------------------------|
|-----------------------------------------------------|
|-----------------------------------------------------|
|----------------------14----------12-12--------------|
|--12-12-121212-121212----12-12-12-10-10--------------|
|-----------------------------------------------------|
    .  .  . . .  . . .     .  .  . 
 Riff C                                              End Riff C
|--------------------------------------------------------------|
|--------------------------------------------------------------|
|--------------------------------------------------------------|
|-----------------------------------------------------------2--|
|--8--8-8-8-10-8-7--7-7-7-8p7p6-------8--8-8-8-10-8-7-------2--|
|-------------------------------8p7p6-----------------0-0-0-0--|
                                                      . . . 
 Riff D                                          
|----------------------------------------------------------|
|----------------------------------------------------------|
|----------------------------------------------------------|
|----2-----------5---------------2-----------4-------------|
|----2-----------3-3-3-333-333-0-2-----------2-5-3-2-------|
|--0-0-0-000-000-----------------0-0-000-000---------5-3-2-|
   .   . ... ...   . . ... ... .   . ... ...
                                          End Riff D
|---------------------------------------------------|
|---------------------------------------------------|
|---------------------------------------------------|
|----2---------------------------------------5---2--|
|----2-----------5-------5-----4-------5-3-2-3---2--|
|--0-0-0-000-000-3-3-3-3-3-3-3-2-2-2-2---------0-0--|
   .   . ... ...   . . .   . .   . . .         .
 Riff E                                     End Riff E
|--------------------------|--------------------------|
|--------------------------|--------------------------|
|o------------------------o|o------------------------o|
|o------------------------o|o------------------------o|
|--------4-----------2-----|-------5-----------3------|
|--2-2-2---2-2-3-3-3---3-3-|-3-3-3---3-3-4-4-4---4-4--|
   . . .   . . . . .   . .   . . .   . . . . .   . . 
 Riff F               
|-------------------------------|
|-------------------------------|
|-------------------------------|
|--9-----9---9-10-----10----10--|
|--7-777-7-777--7-777--7--777---|
|-------------------------------|
     ...   ..     ...     .. 
                   End Riff F
|----------------------------|
|----------------------------|
|----------------------------|
|--9-----9---9-8-----8----8--|
|--6-666-6-666-6-666-6--666--|
|----------------------------|
     ...   ..    ...    ..
 Riff G                           End Riff G
|-------------------------------------------|
|-------------------------------------------|
|-------------------------------------------|
|--------4-5-----5-5------------------------|
|--4-----2-3-3-3-3-3-3-0-4-----5-4-----4-4--|
|--2-2-2-----------------2-2-2-3-2-2-2-2-2--|
     . .     . .     . .   . .     . .  
 Outro                 End Outro Fill 2
|-------------------------------|--------|
|-------------------------------|--------|
|-------------------------------|--------|
|-------------------------------|--------|
|---------2-3-333-3-------------|--------|
|--2--2-2------------2--2-2-3-2-|-222-2--|
   .  . . . . ... .  .  . . . .   ... .
Fill 3
|-----|
|-----|
|-----|
|--4--|
|--4--|
|--2--|

Ok here's the song order but it would be much easier if you just listened to
it yourself. Of course if you're reading this you probably have the son.

Intro (x2)
Riff A (x6)
Bass Interlude (not tabbed out)
Riff A (x4)
Riff 1A (x4)
Riff 1B (x2)
Riff 1C (x2)
Riff B (x2)
Fill 1 (x1)
Riff 2A (x4)
Riff 2B (x2)
Riff C (x2)
Riff D (x4)
Riff E (x2)
Riff F (x2)
Riff A (x2)
Riff G (x4)
Outro (x4) x3 with Fill 2 then x1 with Fill 3

Lyrics:

What do I see on the icy plains
The desolate one, it's my terrain
The wind it blows cold howling my name
I am the king of, the king of this waste

Can you see this arid land 
lain to waste
Ravaged, scorched yet frozen
from your neglect
I am the formless one
I came to save
You are the chosen ones
You'll be my slaves

I stand on the glacier above it all
Watching them crumble, watching them crawl
Iced Earth has risen, nature will fall
Death and destruction, watch them evolve

Can you feel the madness here
Drawing you all to near
Earth and fire, water and air
Save yourselves from despair

We are together now
Crush the cowards, do it now
End the light, end the one
We have come to save the young ones

So on and on the story goes
Destroying yourselves the pain it shows


Ok thats pretty much everything you need to know, or at least everything that 
I know. I'm not positive this is right but it's as close as I can get. Have 
fun kids.


       /  /        /  /
      /|\/|       /|\/|
     / |  |etal  / |  |att
       |  /        |  /
       |/          |/
       /           /
      /           /
Comments