Iced Earth - I Died For You Chords & Tabs

 

I Died For You Chords & Tabs

Iced Earth Chords & Tabs

Version: 1 Type: Bass Tab 0 ratings
1 star 2 stars 3 stars 4 stars 5 stars
comments

I Died For You Bass Tab

   
                           I DIED FOR YOU (BASS) - v. 1.1
                                       11/06/2001

Artist:          Iced Earth
Title:           I Died For You (Bass) 
Album:           The Dark Saga
Transcribed by:  Stefanos Danakos
Email:           slaytanic_gr@yahoo.com
Web site:        http://www.metalprovider.com/sdanakos



 (6) = Eb
 (5) = Ab
 (4) = Db
 (3) = Gb

*Help*
*In this tab I have used this note timings.*
 
| --------     | 1/2  | Half note
| ----         | 1/4  | Quarter note
| --           | 1/8  | Eight note
| -            | 1/16 | Sixteenth note




INTRO:
Riff 1 x 2 times
->(0:00-0:17)
Gb)|----------------------|----------------------|----------------------|----------------------|
Db)|----------------------|----------------------|----------------------|----------------------|
Ab)|----------------------|----------------------|--5-------------------|-5--5-`-5-------------|
Eb)|--0-------------------|-0--0-----------------|----------------------|----------------------|



VERSE 1:
Riff 1 x 4 times
->(0:17-0:51)
Gb)|----------------------|----------------------|----------------------|----------------------|
Db)|----------------------|----------------------|----------------------|----------------------|
Ab)|----------------------|----------------------|--5-------------------|-5--5-`-5-------------|
Eb)|--0-------------------|-0--0-----------------|----------------------|----------------------|

I canít believe this now
This isnít what I planned
I lived and died and now
I just canít understand
With all the love I feel
I could never leave her
No matter what the cost
My soulís the price to see her



CHORUS 1:
Riff 2 x 4 times
->(0:52-1:25)
Gb)|-------------------------|----------------------------|-------------------------|----------------------------|
Db)|-------------------------|----------------------------|-------------------------|----------------------------|
Ab)|-------------------------|----------------------------|-------------------------|----------------------------|
Eb)|--0--0-0-0--0-0-0--0-0-0-|-0-0-0--0-0-0--0-0-0--0-0-0-|--0--0-0-0--0-0-0--0-0-0-|-0-0-0--0-0-0--0-0-0--0-0-0-|

Oh how I love you
The pain wonít go away
Oh when I need you
Youíre always so far away
I cry for you
Leaving myself to blame
I died for you
I gave up everything



VERSE 2:
Riff 1 x 4 times
->(1:25-1:59)
Gb)|----------------------|----------------------|----------------------|----------------------|
Db)|----------------------|----------------------|----------------------|----------------------|
Ab)|----------------------|----------------------|--5-------------------|-5--5-`-5-------------|
Eb)|--0-------------------|-0--0-----------------|----------------------|----------------------|
[ Tab from: http://www.guitartabs.cc/tabs/i/iced_earth/i_died_for_you_btab.html ]
The pain was just too much
When I finally saw her
Sheís happy and in love
In love with my best friend
What makes it hurt so bad
is that I love them both
And they will never know
for love I sold my soul



CHORUS 2:
Riff 2 x 4 times
->(1:59-2:32)
Gb)|-------------------------|----------------------------|-------------------------|----------------------------|
Db)|-------------------------|----------------------------|-------------------------|----------------------------|
Ab)|-------------------------|----------------------------|-------------------------|----------------------------|
Eb)|--0--0-0-0--0-0-0--0-0-0-|-0-0-0--0-0-0--0-0-0--0-0-0-|--0--0-0-0--0-0-0--0-0-0-|-0-0-0--0-0-0--0-0-0--0-0-0-|

Oh how I love you
The pain wonít go away
Oh when I need you
Youíre always so far away
I cry for you
Leaving myself to blame
I died for you
I gave up everything



SOLO:
Riff 2 x 2 times
->(2:32-2:48)
Gb)|-------------------------|----------------------------|-------------------------|----------------------------|
Db)|-------------------------|----------------------------|-------------------------|----------------------------|
Ab)|-------------------------|----------------------------|-------------------------|----------------------------|
Eb)|--0--0-0-0--0-0-0--0-0-0-|-0-0-0--0-0-0--0-0-0--0-0-0-|--0--0-0-0--0-0-0--0-0-0-|-0-0-0--0-0-0--0-0-0--0-0-0-|



CHORUS 3:
Riff 3 x 2 times
->(2:49-3:05)
Gb)|-------------------------|----------------------------|-------------------------|----------------------------|
Db)|-------------------------|----------------------------|-------------------------|----------------------------|
Ab)|-------------------------|----------------------------|-------------------------|----------------------------|
Eb)|--0--0-0-0--0-0-0--0-0-0-|-2-2-2--2-2-2--2-2-2--2-2-2-|--3--3-3-3--3-3-3--3-3-3-|-5-5-5--5-5-5--5-5-5--5-5-5-|



Riff 4 x 2 times
->(3:06-3:22)
Gb)|--------------------------|--------------------------|--------------------------|--------------------------|
Db)|--------------------------|--------------------------|--------------------------|--------------------------|
Ab)|--h-----------------------|--h-----------------------|--h-----------------------|--h-----------------------|
Eb)|-0-2--2-2-2--2-2-2--2-2-2-|-0-2--2-2-2--2-2-2--2-2-2-|-0-2--2-2-2--2-2-2--2-2-2-|-0-2--2-2-2--2-2-2--2-2-2-|

Oh how I love you
The pain wonít go away
Oh when I need you
Youíre always so far away
I cry for you
Leaving myself to blame
I died for you
I gave up everything



CHORUS 4:
Riff 2 x 2 times
->(3:22-3:47)
Gb)|-------------------------|----------------------------|-------------------------|----------------------------|
Db)|-------------------------|----------------------------|-------------------------|----------------------------|
Ab)|-------------------------|----------------------------|-------------------------|----------------------------|
Eb)|--0--0-0-0--0-0-0--0-0-0-|-0-0-0--0-0-0--0-0-0--0-0-0-|--0--0-0-0--0-0-0--0-0-0-|-0-0-0--0-0-0--0-0-0--0-0-0-|

Oh how I love you
The pain wonít go away
Oh when I need you
Youíre always so far away
I cry for you
Leaving myself to blame
Comments