Icarus Fall - Haze Of Our Minds Chords & Tabs

 

Haze Of Our Minds Chords & Tabs

Icarus Fall Chords & Tabs

Version: 1 Type: Tab 0 ratings
1 star 2 stars 3 stars 4 stars 5 stars
comments

Haze Of Our Minds Tab

   
-===============================-
 Icarus Fall - Haze of Our Minds
-===============================-

Artist		-	Icarus Fall
Song		-	Haze of Our Minds
Tabbed By	-	Clayton Botha
e-Mail		-	theno69@hotmail.com
Tuning		-	Standard
Notes		-	

 -=Intro/Verse=-
e||---------------------------------------||
B||---------------------------------------||
G||---5-5---5-5------5---5-5---5-5------5-||
D||---------------------------------------||
A||-3-----3-----3--3---2-----2-----2--2---||
E||---------------------------------------||

e||---------------------------------------||
B||---------------------------------------||
G||---5-5---5-5------5---5-5---5-5------5-||
D||---------------------------------------||
A||-0-----0-----0--0----------------------||
E||--------------------3-----3-----3--3---||

 -=Bridge-1=- ("I'm Into You...")
e||---------------------------------||
B||---------------------------------||
G||-5-5-5-5-5-5-5-5-5-5-5-5-5-5-5-5-||: Palm Mute
D||-3-3-3-3-3-3-3-3-3-3-3-3-3-3-3-3-||: This To Build
A||-3-3-3-3-3-3-3-3-3-3-3-3-3-3-3-3-||
E||-1-1-1-1-1-1-1-1-1-1-1-1-1-1-1-1-||

 -=Chorus-1=- ("When I'm Lost Inside...")
e||--------------------------|-----------------||
B||--------------------------|-----------------||
G||-9-9-7-7-5-5-9-9----------|-9-9-7-7-5-5-5-5-||
D||-7-7-5-5-3-3-9-9-10-10-10-|-7-7-5-5-3-3-3-3-||
A||-7-7-5-5-3-3-7-7-10-10-10-|-7-7-5-5-3-3-3-3-||
E||-5-5-3-3-1-1------8--8--8-|-5-5-3-3-1-1-1-1-||

 -=Interlude-1=- (Repeat This Twice)
e||--------------------------------------------------||
B||--------------------------------------------------||
G||------5-------5--4-5-4-5-------5-------5--4-5-4-5-||
D||----5-------5----------------5-------5------------||
A||-3-------3----------------2-------2---------------||
E||--------------------------------------------------||

e||--------------------------------------------------||
B||--------------------------------------------------||
G||------5-------5--4-5-4-5--------5--------5--4--5--||
D||----5-------5----------------5-----5--5-----------||
A||-0-------0----------------------------------------||
E||--------------------------3-----------------------||

 -=Interlude-2=- ("Everything that I've become...")
e||---------------------------------------||
B||---------------------------------------||
G||---5-5---5-5------5---5-5---5-5------5-||
D||--------------------0-----0-----0--0---||
A||-3-----3-----3--3----------------------||
E||---------------------------------------||
[ Tab from: http://www.guitartabs.cc/tabs/i/icarus_fall/haze_of_our_minds_tab.html ]
e||---------------------------------------||
B||---------------------------------------||
G||---5-5---5-5------5---5-5---5-5------5-||
D||-2-----2-----2--2---3-----3-----3--3---||
A||---------------------------------------||
E||---------------------------------------||

 -=Bridge-2=- ("Everything To Everyone...")
e||---------------------------------||
B||---------------------------------||
G||-5-5-5-5-5-5-5-5-5-5-5-5-5-5-5-5-||
D||-3-3-3-3-3-3-3-3-3-3-3-3-3-3-3-3-||
A||-3-3-3-3-3-3-3-3-3-3-3-3-3-3-3-3-||
E||-1-1-1-1-1-1-1-1-1-1-1-1-1-1-1-1-||

 -=Chorus-2=- ("When I'm Lost Inside...")
e||--------------------------|-----------------||
B||--------------------------|-----------------||
G||-9-9-7-7-5-5-9-9----------|-9-9-7-7-5-5-5-5-||
D||-7-7-5-5-3-3-9-9-10-10-10-|-7-7-5-5-3-3-3-3-||
A||-7-7-5-5-3-3-7-7-10-10-10-|-7-7-5-5-3-3-3-3-||
E||-5-5-3-3-1-1------8--8--8-|-5-5-3-3-1-1-1-1-||

 -=Lyrics=-

 -=Verse-1=-
   Lights down
   The mood is low
   You watch me blaze
   My vapor trails
   Through highs to chase
   Through dark so deep
   That nothing ever radiates

 -=Bridge=-
   Still you
   Are into me
   And I'm into you

 -=Verse-2=-
   She takes on a coloured hue 
   I've never let someone 
   So far in
   I just want to feel good
   Where the room touches against my skin 

 -=Bridge-1=-
   Till I'm
   Into you 
   And you're into me

	-=Chorus=-
	  And I'm lost inside 
	  My seratonin slide
	  I will spiral down 
	  And find you still around
	  Are you ready for this ride?

 -=Verse-3=-
   Would you pull 
   The trigger of the gun
   That will kill you?
   My world goes crash 
   My self is all that 
   I have left to prove

 -=Bridge-2=-
   Till you
   Are into me
   And I'm into you

	-=Chorus=-
	  When I'm lost inside 
	  My seratonin slide
	  I will spiral down 
	  And find you still around
	  Are you ready for this ride?

 -=Interlude-2=-
   Everything that I've become I've 
   Let myself
   Become
   But all I've ever wanted 
   To become 
   Is just
   Everything to everyone

	-=Chorus=-
	  When I'm lost inside 
	  My seratonin slide
	  I will spiral down 
	  And find you still around
	  Are you ready for this ride?

-====================================================================-
 Thanks for viewing my tab! Any questions, comments or death treats??
 I'm open to all corrections so please e-mail me: theno69@hotmail.com
-====================================================================-
Comments