Icarus Fall - Beautiful Headlights Chords & Tabs

 

Beautiful Headlights Chords & Tabs

Icarus Fall Chords & Tabs

Version: 1 Type: Tab 0 ratings
1 star 2 stars 3 stars 4 stars 5 stars
comments

Beautiful Headlights Tab

   
-==================================-
 Icarus Fall - Beautiful Headlights
-==================================-

Artist		-	Icarus Fall
Song		-	Beautiful Headlights
Tabbed By	-	Clayton Botha
e-Mail		-	theno69@hotmail.com
Tuning		-	Standard
Notes		-	This SA band is soon to be released & will blow 
			The market away! The demo is available from 
			www.icarusfall.co.za
			This is their most popular song, ENJOY!!!

 -=Intro/Verse=- (Repeat This 6 Times)
e||---------------------------------||
B||-------0-------0---------------0-||
G||-----0-------0-------0-------0---||
D||---2-------2-------2---2---2-----||
A||-------------------------0-------||
E||-0-------2-------3---------------||

 -=Bridge=- ("And I...")
    Em      Esus2   C
e||-0-0--|--0-0--|--0-0-0-0-||
B||-0-0--|--0-0--|--1-1-1-1-||
G||-3-3--|--4-4--|--0-0-0-0-||
D||-2-2--|--2-2--|--2-2-2-2-||
A||-2-2--|--2-2--|--3-3-3-3-||
E||-0-0--|--0-0--|--0-0-0-0-||

 -=Pre-Chorus=- ("It's Easy For Me...")
    Em        A7        Am7       Bmaj5
e||-0-0-0-0-|-0-0-0-0-|-0-0-0-0-|-------------------||
B||-0-0-0-0-|-2-2-2-2-|-1-1-1-1-|-------------------||
G||-0-0-0-0-|-0-0-0-0-|-0-0-0-0-|---------4-4-4-4-4-||
D||-2-2-2-2-|-2-2-2-2-|-2-2-2-2-|-----4-4-4-4-4-4-4-||
A||-2-2-2-2-|-0-0-0-0-|-0-0-0-0-|-2-2-2-2-2-2-2-2-2-||
E||-0-0-0-0-|-0-0-0-0-|-0-0-0-0-|-0-0-0-0-0-0-0-0-0-||

 -=Chorus-1=- (Clean) ("Your Beautiful Headlights...")
e||-----------||-0-0-|-0-0-|-2-2-|-3-3-2-2-||
B||-----------||-0-0-|-1-1-|-3-3-|-3-3-3-3-||
G||---2/4-2-0-||-4-4-|-0-0-|-2-2-|-2-2-2-2-||
D||-2---------||-2-2-|-2-2-|-0-0-|-0-0-0-0-||
A||-----------||-2-2-|-3-3-|-0-0-|-0-0-0-0-||
E||-----------||-0-0-|-0-0-|-x-x-|-x-x-x-x-||

 -=Repeat-Intro-Twice=-

 -=Verse-2=- (Clean) (Repeat This 4 Times)
e||-----------------------------------------||
B||-----0-0-x-----0-0-x-----0-0-x-----0-0-x-||
G||-----0-0-x-----0-0-x-----0-0-x-----0-0-x-||
D||---2-2-2-x---2-2-2-x---2-2-2-x---2-2-2-x-||
A||-------------------------------0---------||
E||-0---------2---------3-------------------||

 -=Repeat-Bridge-And-Pre-Chorus-With-Distortion=-

 -=Chorus-2=- (Distortion)
e|-----------||-----|-----|---------||
B|-----------||-----|-----|---------||
G|---2/4-2-0-||-----|-5-5-|-7-7-7-7-||
D|-2---------||-2-2-|-5-5-|-7-7-7-7-||
A|-----------||-2-2-|-3-3-|-5-5-5-5-||
E|-----------||-0-0-|-----|---------||
[ Tab from: http://www.guitartabs.cc/tabs/i/icarus_fall/beautiful_headlights_tab.html ]
 -=Interlude=-         (Drums Kick In)
e||------------------|------------------||
B||------------------|------------------||
G||-9-9-9-7-9-9-9-10-|-9-9-9-7-9-9-9-10-||
D||-9-9-9-7-9-9-9-10-|-9-9-9-7-9-9-9-10-||
A||-7-7-7-5-7-7-7--8-|-7-7-7-5-7-7-7--8-||
E||------------------|------------------||

   ("I see the fractured Light...")
e||-----------------------|-------------------||
B||-----------------------|-------------------||: On The Last Note When
G||-----5-5-----7-7-(4-4)-|---------4-4-4-4-4-||: Shaun Says "Beautiful"
D||-2-2-5-5-5-5-7-7-(4-4)-|-----4-4-4-4-4-4-4-||: Strum (2-4-4)
A||-2-2-3-3-5-5-5-5-(2-2)-|-2-2-2-2-2-2-2-2-2-||: Instead of (5-7-7)
E||-0-0-----3-3-----------|-0-0-0-0-0-0-0-0-0-||

 -=Finish-With-The-Chorus=-
e||-x----------------||
B||-x----------------||
G||-x----------------||: Just Let
D||-2~~~~~~~~~~~~~~~-||: It Ring
A||-2~~~~~~~~~~~~~~~-||
E||-0~~~~~~~~~~~~~~~-||

-==========-
 -=Lyrics=-
-==========-

 -=Verse-1=-
   When
   It comes in slow motion
   Take from me
   All emotion

 -=Bridge=-
   And I-
   Can see it coming
   High-
   Speed wreck potential
   And I-
   Could lie so still

 -=Pre-Chorus=-
   It's easy for me
   If I can believe
   When it's this dark and all I see

      -=Chorus=-
	Is your beautiful headlights
	Your beautiful headlights
	Your beautiful headlights
	Are killing me

 -=Verse-2=-
   2Am on the freeway, I'm asleep in my haven
   I could jump it but you're too far away
   In this dream I'd like to be part of your twisted metal
   But you're too cautious at this time of day

   Use the lines, mark the distance between here and then
   You can run, but you can never outrun yourself
   It's the enigma of the disembodied glow
   And it's drawing me close

 -=Bridge=-
   I-
   See the flash of sparks
   In time-
   I'll leave the blackened marks
   And I-
   Wanted something too dark

 -=Pre-Chorus=-
   And it's easy for me
   With you at the wheel
   To believe in the things that I can keep

      -=Chorus=-
	Is your beautiful headlights
	Your beautiful headlights
	Your beautiful headlights
	Are killing me

 -=Interlude=-
   I see the fractured light reflected in the glass
   Shards of what I used to be beneath the air so still
   It tastes warm in here, and I can feel you near
   Now I know the truth that this is beautiful

      -=Chorus=-
	Is your beautiful headlights
	Your beautiful headlights
	Your beautiful headlights
	Are killing me

-====================================================================-
 Thanks for viewing my tab! Any questions, comments or death treats??
 I'm open to all corrections so please e-mail me: theno69@hotmail.com
-====================================================================-
Comments