Iaxe - Akoy Syo Ikay Sakin Chords & Tabs

 

Akoy Syo Ikay Sakin Chords & Tabs

Iaxe Chords & Tabs

Version: 1 Type: Tab 0 ratings
1 star 2 stars 3 stars 4 stars 5 stars
comments

Akoy Syo Ikay Sakin Tab

   
++++++++++++++++++++++++++++++++++++++++++++++++++++
+ Title: Ako'y s'yo ika'y sakin                    +
+ Band: Iaxe                                       +
+ Transcribed by: Ricky Jay Lonceras               +
++++++++++++++++++++++++++++++++++++++++++++++++++++

This is only the solo part:
e-------------------------------------------------|
b-------------------------------------------------|
g-----------6--7-7-6-7-6--------------------------|
d--------7----------------7h9--6-------4----------|
a-----7---------------------------7/6-------------|
E--5----------------------------------------------|


e--------------------------------------------------|
b------------------------------------6-------------|
g-------------------------2h4-4--4/6----6----------|
d--(4)--4p2-----------2h4--------------------------|
a-----------4--2-2h4-------------------------------|
E--------------------------------------------------|
[ Tab from: http://www.guitartabs.cc/tabs/i/iaxe/akoy_syo_ikay_sakin_tab.html ]
e-----------------5h7--5---5-----------(2)---------|
b-----------------5----5---5---7--------2----------|
g--2p1--2p1-------6----6-------7---6----2----------|
d------------3----7----------------7---------------|
a--------------------------------------------------|
E--------------------------------------------------|

e--12--10--9---12--10--9---------------------------|
b--10--------------------12--10--9-----------------|
g--9--------------------------------11b--9--11b----|
d--------------------------------------------------|
a--------------------------------------------------|
E--------------------------------------------------|

e--9-----------------------------------------------|
b-----12--10--9------------------------------------|
g-----------------11-11---11-9---------------------|
d--------------------------------------------------|
a--------------------------------------------------|
E--------------------------------------------------|

solo chords
A-F#m-Bm-E
A-F#m-Bm-E

yan lang po sna magustuhan nyo!!!(".)?

comment is free ok:
axl_since1969@yahoo.com

+++++++++++++++++++++++++++++++++++++++++++++++++++++++++++++++++++++++++++
Comments