Ian Moore - How Does It Feel Chords & Tabs

 

How Does It Feel Chords & Tabs

Ian Moore Chords & Tabs

Version: 1 Type: Tab 0 ratings
1 star 2 stars 3 stars 4 stars 5 stars
comments

How Does It Feel Tab

----------------------------------------------------------------------------
How Does It Feel== Ian Moore
----------------------------------------------------------------------------
tabbed by: stickman
email: eleven572@lycos.com

tunning: standard

This song rocks! Ian Moore is a great song writter, but he's also a very creative guitar 
so here it is.

intro                                                  play 4 times
E-666666--------------------------------------------------------------------|
B-666666--------------------------------------------------------------------|
G---------5-5-x-x-x-x--8-8-x-x-x-x--10-10-x-x-x-x---------5p3--0-0----------|
D---------5-5-x-x-x-x--8-8-x-x-x-x--10-10-x-x-x-x---------------------------|
A---------3-3-x-x-x-x--6-6-x-x-x-x---8--8-x-x-x-x---5-5---------------------|
E---------------------------------------------------3-3---------------------|


E----------------------------------------------------------------------------|
B---------3h4p3------------------3h4p3--------------3h4p3-----------3--3h4---|
G----------------5p3---------3----------5p3----------------5p3----4--4----3--|
D-----5-------------------5---------------------3---------------5----------4-|
A--3-------------------6----------------------3------------------------------|
E----------------------------------------------------------------------------|

[ Tab from: http://www.guitartabs.cc/tabs/i/ian_moore/how_does_it_feel_tab.html ]
E---------------------------------------------------------------------------|
B--------3h4p3------------------3h4p3-----------------3h4p3-----------------|
G---------------5p3----------3--------5p3--------3------------5p3-----------|
D----5--------------------5-------------------3-----------------------------|
A--3-------------------6----------------------------------------------------|
E---------------------------------------------------------------------------|


E---3/6--6/8--8/11--11/-----------------------------------------------------|
B---3/6--6/8--8/11--11/-----------------------------------------------------|
G---------------------------------------------------------------------------|
D---------------------------------------------------------------------------|
A---------------------------------------------------------------------------|
E---------------------------------------------------------------------------|


so you were twisted......
E---------------------------------------------------------------------------|
B---------------------------------------------------------------------------|
G----------------------5----------------------------8-----------------------|
D------------------5-----------------------------8--------------------------|
A-----------3------------------------------6--------------------------------|
E---------------------------------------------------------------------------|


That's pretty much it. The change is an A and a D chord Enjoy!

If you want the solo let me know, but you always look like a half-ass when you copy 
elses solos!
Comments