Ian Dury The Blockheads - Hit Me With Your Rythm Stick Chords & Tabs

 

Hit Me With Your Rythm Stick Chords & Tabs

Ian Dury The Blockheads Chords & Tabs

Version: 1 Type: Bass Tab 1 rating
1 star 2 stars 3 stars 4 stars 5 stars
comments

Hit Me With Your Rythm Stick Bass Tab

   
Bassist: Norman Watt Roy
The Main Line:
The bass is tuned 1 semitone higher (F A# D# G#)
    Fm7
G# :----------------------------------------------------------7-7--
D# :--------------------------------------------------------5------
A# :---7-5-5----------------------------7-5-5-----------5-7--------
F  :---------7-7-5-5-7-7-5-5-7-5-0-0----------7-7-5-5-7-----------0
        
G# :------------------------------------ -----------------------7-7
D# :----------------------------------------------------------5-----
A# :---7-5-5----------------------------7-5-5-----------(5-7)-------
F  :---------7-7-5-5-7-7-5-5-7-5-0-0----------7-7-5-5-7-------------
  
(Hammer)
      A#       C       
G# :-----------------------
D# :-----------------------
A# :-----------------------
F  :---5--5----7--7----0---
  
    Fm7
G# :---------------------------------------------------------7-7
D# :-------------------------------------------------------5----
A# :---7-5-5---------------------------7-5-5-----------5-7------
F  :---------7-7-5-5-7-7-5-5-7-5-0-0---------7-7-5-5-7----------
[ Tab from: http://www.guitartabs.cc/tabs/i/ian_dury_the_blockheads/hit_me_with_your_rythm_stick_btab.html ]
Comments