Iam Frog - The Melody Song Chords & Tabs

 

The Melody Song Chords & Tabs

Iam Frog Chords & Tabs

Version: 1 Type: Tab 0 ratings
1 star 2 stars 3 stars 4 stars 5 stars
comments

The Melody Song Tab

   
  #----------------------------------PLEASE NOTE---------------------------------#
  #This file is the author's own work and represents their interpretation of the #
  #song. You may only use this file for private study, scholarship, or research. #
  #------------------------------------------------------------------------------#
[ Tab from: http://www.guitartabs.cc/tabs/i/iam_frog/the_melody_song_tab.html ]
 ---------------------------------------------------------------------------------------
              			The Melody Song - Iam Frog
 ---------------------------------------------------------------------------------------
Intro: Guitar A (x4)
e ----------------------------------------------
B ----------------------------------------------
G ----------------------------------------------
D ----------------------------------------------
A --0-0-3-3-2-------2-2-3------3-3-2------2-2-3-
E --------------3-3--------1-1--------3-3-------

Guitar B (x2 on halfway through Guitar A)
e -------------
B -------------
G -------------
D --7--5--3--5-
A --7--5--3--5-
E --5--3--1--3-


Verse
e -----------------------------------------
B -----------------------------------------
G -----------------------------------------
D --7-777777--5-555555--3-333333--5-555555-
A --7-777777--5-555555--3-333333--5-555555-
E --5-555555--3-333333--1-111111--3-333333-
   PM ******    ******    ******    ******


Chorus
e ------------------------------------------------
B ------------------------------------------------
G -----------1010101010101010--55555555-----------
D -77777777--1010101010101010--55555555--55555555-
A -55555555---8-8-8-8-8-8-8-8--33333333--55555555-
E -55555555------------------------------33333333-

Song Order:
Intro
Verse
Intro
Verse
Chorus
Intro
Verse
Chorus
Intro
Comments