I Mother Earth - Like The Sun Chords & Tabs

 

Like The Sun Chords & Tabs

I Mother Earth Chords & Tabs

Version: 2 Type: Tab 0 ratings
1 star 2 stars 3 stars 4 stars 5 stars
comments

Like The Sun Tab

I Mother Earth - Like The Sun

Intro:

e --------------------------------------------------
b --------------------------------------------------
g --------------------------------------------------
d ----9-11-h12---9--11-11/12--9-11-12---------------
a 7/9--9--------9-9----------8-8--------------------
E --------------------------------------------------

Verse:

e ---------------------------------------------------
b ---------------------------------------------------
g -4-------------------------------------------------
d -4-x10-4-----5------------------------------------- X2
a -2-----4-x7-/5-x10---------------------------------
E -------2-----3-------------------------------------

  2nd time:
e ---------------------------------------------------
b ---------------------------------------------------
g -4-------------------------------------------------
d -4-x10-4-----5------7------------------------------
a -2-----4-x7-/5-x10/-7-x5---------------------------
E -------2-----3------5------------------------------

 Intro x2

 Chorus

e ----------------------------------------------------
b ----------------------------------------------------
g -4------7-------------------------------------------
d -4-x10/-7-x6-7-----5-------------------------------- X2
a -2------5----7-x9/-5-x5-----------------------------
E -------------5-----3--------------------------------

 Verse x2

 *then*play*this:
[ Tab from: http://www.guitartabs.cc/tabs/i/i_mother_earth/like_the_sun_tab_ver_2.html ]
e ---------------------------------------------------
b ---------------------------------------------------
g -9-h10-p9-------9-h10-p9----9-h10-p9-------9-11-12-
d ----------12-9-----------12----------12-10---------
a ---------------------------------------------------
E ---------------------------------------------------
 
e ---------------------------------------------------
b ---------------------------------------------------
g ---------------------------------------------------
d ---------------------------------------------------
a --------------------------------------------------- X2
E -3-2-0-320-0---------------------------------------

 Bridge!!:

e ---------------------------------------------------
b ---------------------------------------------------
g -8-8---8-8---8-6-6---6-6---6--6-h8-p6-6-h7-p6-9----
d -----6-----6-------6-----6-------------------------
a ---------------------------------------------------
E ---------------------------------------------------

e ---------------------------------------------------
b ---------------------------------------------------
g ------------6-6-h8-p6-4-2-6-h8-p6-4-2-6-8-9--------
d -6-h8-6-9-6----------------------------------------
a ---------------------------------------------------
E ---------------------------------------------------

 then this is played 2/ 3 times 

e ---------------------------------------------------
b ---------------------------------------------------
g -------2-------2--3--------------------------------
d -----2-------2---3---------------------------------
a -2/4------3/4---3----------------------------------
E ---------------------------------------------------

 verse
 
 intro
  
 "*then*play*this" 

 chorus

 Well, that's it! Hope you enjoy. **Astro
Comments