I Am X - President Chords & Tabs

 

President Chords & Tabs

I Am X Chords & Tabs

Version: 1 Type: Tab

President Tab

I AM X - President

Date - 14 / 05 / 06

Tabbed by - Keyser

Palm Mute or Left Hand Mute : X
Slide Down :
Slide Up : /
Tremolo : ~
Harmonics : ()
Hammer On : h
Pull Off : p
Tremolo Picking : TP under tab
Palm Mute : PM under tab
Tremolo Bar : TBR under tab (/ means up,  means down)
Pre-bend : prb

Fantastic song, so I thought I'd tab it as no one else has

The whole bulk of the song consists of only four chords; Dm, A#, Gm and A...
I just added some bass notes to match the piano, as well as the synthesized bits...


E|----5-5-----5-5-----5-5-----5-5--------6-6-----6-6-----6-6-----6-6---|
B|----6-6-----6-6-----6-6-----6-6--------6-6-----6-6-----6-6-----6-6---|
G|----7-7-----7-7-----7-7-----7-7--------7-7-----7-7-----7-7-----7-7---|
D|----7-7-----7-7-----7-7-----7-7--------8-8-----8-8-----8-8-----8-8---|
A|--5-------5-------5-------5------------8-8-----8-8-----8-8-----8-8---|
E|-------------------------------------6-------6-------6-------6-------|
[ Tab from: http://www.guitartabs.cc/tabs/i/i_am_x/president_tab.html ]
E|----3-3-----3-3-----3-3-----3-3-----3-3--------5-5-----5-5-----5-5---|
B|----3-3-----3-3-----3-3-----3-3-----3-3--------5-5-----5-5-----5-5---|
G|----3-3-----3-3-----3-3-----3-3-----3-3--------6-6-----6-6-----6-6---|
D|----5-5-----5-5-----5-5-----5-5-----5-5--------7-7-----7-7-----7-7---|
A|----5-5-----5-5-----5-5-----5-5-----5-5--------7-7-----7-7-----7-7---|
E|--3-------3-------3-------3-------3----------5-------5-------5-------|

E|----5-5-----5-5------|
B|----5-5-----5-5------|
G|----6-6-----6-6------|
D|----7-7-----7-7------|
A|----7-7-----7-7------|
E|--5-------5----------|

Synth/Guitar bit (Around 1 min 25 secs in):

E|--------------------------------------------------------------------------|
B|------5--6------------------------------------5--6------------------------|
G|--7---------3----5--2---3-2-3--0----3--6--7----------3----5--2----3-2-3-0-|
D|--------------------------------------------------------------------------|
A|--------------------------------------------------------------------------|
E|--------------------------------------------------------------------------|
	TP ........................................................................

E|-------------|
B|-------------|
G|--3----6-----|
D|-------------|
A|-------------|
E|-------------|
	........

There are some extra bits, but you can figure them out...