Hypocrisy - The Arrival Of The Demons Chords & Tabs

 

The Arrival Of The Demons Chords & Tabs

Hypocrisy Chords & Tabs

Version: 1 Type: Tab 0 ratings
1 star 2 stars 3 stars 4 stars 5 stars
comments

The Arrival Of The Demons Tab

   
                      HYPOCRISY - THE ARIVAL OF THE DEMONS
                           From the Album - ABDUCTED
                         Copyright: NUCLEAR BLAST 1997
                          Version 1.0 - Febuary, 2002

Transcribed By: James Williams (Inverted)

For Questions, Comments, Newest Version, or Corrections contact
 Inverted: at Inverted_one@hotmail.com

Check Out Death8699.com, With More Transcriptions On It:
 http://www.death8699.com

.  - palm mute           /  - slide up to
\  - slide down to       ~  - vibrato
h  - hammer on           b  - Bend
p  - pull off            Suffixes for bend
t  - tap                 f  - full bend    h - half bend
ph - pinched harmonic    q  - quarter bend t - tap bend
*  - see comment         ^  - Hold bend    r release bend
x  - Stuccatto           ~  - vibrato bend
,  - slight palm mute    () - ghost note, sustained note
"  - tremolo note        <> - Trill

Tuning: "B"E"A"D"G"B"E" 7-String or "B"E"A"D"G"B" 6-String

THE ARIVAL OF THE DEMONS (PART II)...

Riff 1                                                              x2
|-----------------------------------|---------------------------------|
|-----------------------------------|---------------------------------|
|-----------------------------------|---------------------------------|GTR I
|--2----5----4-5-4--------5---------|-2----5----4-5-4--------5-----7--|
|--2----3----2-3-2------5-----4-----|-2----3----4-5-4------5-----7----|
|--0----3----2-3-2--0-3-----2---3-2-|-0----3----2-3-2--0-3-----5------|
|pm          . .                                . .                   |
|-----------------------------------|---------------------------------|
|-----------------------------------|---------------------------------|
|-----------------------------------|---------------------------------|GTR
II
|--2----5----4-5-4----5-----4---5-4-|-2----5----4-5-4----5-----7------|
|--2----3----2-3-2----5-----4---5-4-|-2----3----4-5-4----5-----7------|
|--0----3----2-3-2----3-----2---3-2-|-0----3----2-3-2----3-----5------|
pm           . .                . .             . .

Riff 2                                         x3
|------------------------------------------------|
|------------------------------------------------|
|------------------------------------------------|
|-2--------2--7--------7--9--------9--7--------7-|
|-2--------2--7--------7--9--------9--7--------7-|
|-0--------0--5--------5--7--------7--5--------5-|
|                                              x1|
|------------------------------------------------|
|------------------------------------------------|
|------------------------------------------------|
|-2--------2--7--------7--9--------9--7--------7-|
|-2--------2--7--------7--9--------9--7--------5-|
|-0--------0--5--------5--7--------7--5--------5-|


Riff 3-A                                                 x1
|----------------------------------------------------------|
|----------------------------------------------------------|
|----------------------------------------------------------|GTR I
|-----10---10-----7-----7-----9-------9-------9-------9----|
|---10---10-----7-----7-----9---9---9---9---9---9---9---9--|
|--8----8-----5-----5-----7-------7-------7-------7--------|
|                                                          |
|----------------------------------------------------------|
|----------------------------------------------------------|
|----------------------------------------------------------|GTR II
|-10----------7-----------9--------------------------------|
|-10----------7-----------9--------------------------------|
|--8----------5-----------7--------------------------------|
[ Tab from: http://www.guitartabs.cc/tabs/h/hypocrisy/the_arrival_of_the_demons_tab.html ]
Riff 3-B                                                 x1
|----------------------------------------------------------|
|----------------------------------------------------------|
|----------------------------------------------------------|GTR I
|-----10---10-----7-----7-----9-------9---9-9-9-9-9-9-9-9--|
|---10---10-----7-----7-----9---9---9---9-9-9-9-9-9-9-9-9--|
|--8----8-----5-----5-----7-------7-------7-7-7-7-7-7-7-7--|
|pm                                       . . . . . . . .  |
|----------------------------------------------------------|
|----------------------------------------------------------|
|----------------------------------------------------------|GTR II
|-10----------7-----------9---------------9-9-9-9-9-9-9-9--|
|-10----------7-----------9---------------9-9-9-9-9-9-9-9--|
|--8----------5-----------7---------------7-7-7-7-7-7-7-7--|
pm                                        . . . . . . . .

Riff 4                                            x2
|---------------------------------------------------|
|---------------------------------------------------|
|---------------------------------------------------|
|------------------------------------------6-----4--|
|-10----------7--------7--11--------11--7--4--6--2--|
|--8----------5--------5---9---------9--5-----4-----|

Repeat riff 2 w/solo

Solo
|-17-15-13-15-13-----17---------------17^17-17-17-17-17-17r-
|----------------15-----15-12-13-15~--bf--------------------
|-----------------------------------------------------------
|-----------------------------------------------------------
|-----------------------------------------------------------
|-----------------------------------------------------------

-17-15-13-15-13----17----13-15-13----17---------------------
----------------15----15----------15----15-12~--------------
------------------------------------------------------------
------------------------------------------------------------
------------------------------------------------------------
------------------------------------------------12"-13"-15"-
                                                ............
--------------------------------|
--------------------------------|
--------------------------------|
-------------12"-13"-15^(15)----|
-12"-13"-15"---------bf---------|
--------------------------------|
....................

Repeat Riff 3
       Riff 4
       Riff 1 x 1

Riff 5
|-------------------------------------------------------------|
|-------------------------------------------------------------|
|-------------------------------------------------------------|
|--2------2--5\7---7--7\9---9--2\5------5--5\7--7--7\9--9\10--|
|-------------------------------------------------------------|
|--0------0--3\5---5--5\7---7--0\3------3--3\5--5--5\7--7\-8--|
|                                                             |GTR I
|-------------------------------------------------------------|
|-------------------------------------------------------------|
|-------------------------------------------------------------|
|--2------2--5----4----5----2------2--5----4----5-------------|
|-------------------------------------------------------------|
|--0------0--3----2----3----0------0--3----2----3----Repeat---|

|-------------------------------------------------------------|
|-------------------------------------------------------------|
|-------------------------------------------------------------|
|--2------2--5\7---7--7\9---9--2\5------5--5\7--7--7\9--9\10--|
|-------------------------------------------------------------|
|--0------0--3\5---5--5\7---7--0\3------3--3\5--5--5\7--7\-8--|
|                                                             |GTR II
|-------------------------------------------------------------|
|-------------------------------------------------------------|
|-------------------------------------------------------------|
|--2------2--5----4----5----2------2--5----4----5-------------|
|--2------2--5----4----5----2------2--5----2----5-------------|
|--0------0--3----2----3----0------0--3----2----3----repeat---|

 Check out my other tabs by Hypocrisy, Grave, Obituary
and Six Feet Under.
Comments