Hypocrisy - Reversed Reflections Chords & Tabs

 

Reversed Reflections Chords & Tabs

Hypocrisy Chords & Tabs

Version: 1 Type: Tab 0 ratings
1 star 2 stars 3 stars 4 stars 5 stars
comments

Reversed Reflections Tab

   
                        HYPOCRISY - REVERSED REFLECTIONS
                           From the Album - HYPOCRISY
                         Copyright: NUCLEAR BLAST 1999
                           Version 1.0 - January 2001


Transcribed by: James Williams (Inverted)

For Questions, Comments, Newest Version, or Corrections contact
Inverted: at Inverted_one@hotmail.com

Check Out Death8699.com Metaltabs.com or dsrmusic.com for More
Transcriptions:http://www.Death8699.com http://www.Metaltabs.com


 .  - palm mute           /  - slide up to
 \  - slide down to       ~  - vibrato
 h  - hammer on           b  - Bend
 p  - pull off            Suffixes for bend
 t  - tap                 f  - full bend    h - half bend
 ph - pinched harmonic    q  - quarter bend t - tap bend
 *  - see comment         ^  - Hold bend    r release bend
 x  - Stuccatto           ~  - vibrato bend
 ,  - slight palm mute    () - ghost note, sustained note
 "  - tremolo note        <> - Trill

Tunnig:"A"D"G"C"F"A"d" Can also be played on a 6-string just put
        on some 13' guage strings and tune "A"D"G"C"F"a"

REVERSED REFELTIONS...

Riff 1
|----------------------------------------------------|
|----------------------------------------------------|
|----------------------------------------------------|
|----------------------------------------------------|
|---4-----------------------4-----------------7------|
|---2-----7-----5-----4-----2-----7-----5-----5------|
|-------0-5---0-3---0-2---------0-5---0-3---0--------|

Lead 1
|-------------------------------------------------------------------
|-------------------------------------------------------------------
|----------------------------------------------------------bq-------
|--11---12------11---------12-11---11---12------11---------14-12p11-
|----------14------12---14-----------------14------12---14----------
|-------------------------------------------------------------------
|-------------------------------------------------------------------

 ---------------------------------------------------------------------------
--|
 ---------------------------------------------------------------------------
--|
 ---------------------------------------------------------------------------
--|
 -11---12------11---------12-11---11-12-14-12-11--11h12p11----14-12-11h12p11
--|
 ---------14------12---14----------------------------------14---------------
--|
 ---------------------------------------------------------------------------
--|
 ---------------------------------------------------------------------------
--|

Riff 2 (Riff for Lead 2)
|-------------------------------------------------|
|-------------------------------------------------|
|-------------------------------------------------|
|-------------------------------------------------|
|-------------------------------------------------|
|--2""---------5""--------------------------------|
|--------------------------5""---------3""--------|

Note* There are some pattern variations in lead 2 so practice
      it with the CD to catch them.
[ Tab from: http://www.guitartabs.cc/tabs/h/hypocrisy/reversed_reflections_tab.html ]
Lead 2-A (Count 1 23 1 23 1 23 1 23)
|-------------------------------------------------|
|-------------------------------------------------|
|-------------------------------------------------|
|--11--14-12---11--14-12---11--14-12---11--16-14--|
|-------------------------------------------------|
|-------------------------------------------------|
|-------------------------------------------------|

Lead 2-B (count 1234 1234 1234 1234)
|------------------------------------------------------|
|------------------------------------------------------|
|------------------------------------------------------|
|--11-11-14-12--11-11-14-12--11-11-14--12--11-11-16-14-|
|------------------------------------------------------|
|------------------------------------------------------|
|------------------------------------------------------|

Riff 3-A
|------------------------------------------------------------|
|------------------------------------------------------------|
|------------------------------------------------------------|
|------------------------------------------------------------|Gtr I
|--9-9-9--10101010--7-7-7--9-9-9-9---------------------------|
|--7-7-7---8-8-8-8--5-5-5--7-7-7-7--9------------7-----------|
|-----------------------------------7------------5-----------|

Riff 3-B
|-------------------------------------------------------------|
|-------------------------------------------------------------|
|-------------------------------------------------------------|
|-----------------------------------11-12-14-12-----11-12-14~-|Gtr II
|--9-9-9--10101010--7-7-7--9-9-9-9---------------14-----------|
|--7-7-7---8-8-8-8--5-5-5--7-7-7-7----------------------------|
|-------------------------------------------------------------|


Riff 4-A
|--------------------------------------|
|--------------------------------------|
|--------------------------------------|
|--------------------------------------|Gtr I
|--------------------------------------|
|--------------------------------------|
|--000-222-000-222-000-222-000-222-ect-|
pm ... ... ... ... ... ... ... ...

Riff 4-B
|--------------------------------------|
|--------------------------------------|
|--------------------------------------|
|--------------------------------------|Gtr I
|--4---------------9-------------------|
|--2---------------7-------------------|
|--------------------------------------|

Lead 3
|--------------------------------------|
|--------------------------------------|
|--9\11--7---7-9---7\9--9/7--7/5--5\7--|Gtr II
|--------------------------------------|
|--7\9---5---5-7---5\7--7/5--5/3--3\5--|
|--------------------------------------|
|--------------------------------------|

Riff 5 (Sweep pick)
|----------------------------------------------|
|-----0----0----0----0------0----0----0----0---|
|----9----7----5----7------9----7----9----10---|
|---9----7----5----7------9----7----9----10----|
|--7----5----3----5------7----5----7----8------|
|----------------------------------------------|
|----------------------------------------------|

 Check out my other tbas by Hypocrisy, Grave, Obituary
and Six Feet Under.
Comments